Pink Floyd - Sorrow (2)

Pink Floyd



Title: Sorrow
Album: A momentary lapse of reason
Artist: Pink Floyd
Author: David Gilmour

Track 1: Guitar 1
E|---------|---------|---------|---------|-------------0--------------------|-----------------------------|
B|---------|---------|---------|---------|----------------------------------|-----------------------------|
G|-%-------|-%-------|---------|---------|----------------------------------|-----------------------------|
D|-%-------|-%-------|---------|---------|----------------------------------|-----------------------------|
A|---------|---------|---------|---------|-7----7------7-----7----9----7----|-5-----------2----5----5-----|
E|---------|---------|-0-------|-0-------|----------------------------------|--------3--------------------|

E|---------------|---------|---------|-------------0--------------------|-----------------------------|
B|-------3-------|---------|---------|----------------------------------|-----------------------------|
G|---------------|---------|---------|----------------------------------|-----------------------------|
D|---------------|---------|---------|----------------------------------|-----------------------------|
A|-5-------------|---------|---------|-7----7------7-----7----9----7----|-5-----------2----5----5-----|
E|---------------|-0-------|-0-------|----------------------------------|--------3--------------------|

E|---------------|-----------------------|---------|----------------------------------|
B|---------------|-----------------------|---------|----------------------------------|
G|---------------|-----------------------|---------|----------------------------------|
D|---------------|-----------------------|---------|-2----2------2-----2----4----2----|
A|-0------0------|-----------------------|---------|----------------------------------|
E|---------------|-0------0------0---0---|-0-------|----------------------------------|

E|-----------------------------|---------|---------|----------------------------------|
B|-----------------------------|-3-------|-3-------|----------------------------------|
G|-----------------------------|---------|---------|----------------------------------|
D|-0----------------0----0-----|-0-------|-0-------|-2----2------2-----2----4----2----|
A|-------------2---------------|---------|---------|----------------------------------|
E|--------3--------------------|---------|---------|----------------------------------|

E|-----------------------------|---------|---------------|---------|--------------------|
B|-----------------------------|---------|---------------|---------|--------------------|
G|-----------------------------|---------|---------------|---------|-21----20----19-----|
D|-0---------------------------|---------|---------------|---------|--------------------|
A|-------------2----5----5-----|---------|---------------|---------|--------------------|
E|--------3--------------------|-0-------|-0------0------|-0-------|-0-----0-----0------|

E|---------|---------------|---------|---------|--------------------|------------------------|
B|---------|---------------|---------|---------|-------------3------|-3----------------------|
G|---------|---------%-----|-%-------|-%-------|-%------%----2------|-2----%----%-----%------|
D|---------|---------%-----|-%-------|-%-------|-%------%----0------|-0----%----%-----%------|
A|---------|---------------|---------|---------|--------------------|------------------------|
E|-0-------|-0-------------|---------|---------|--------------------|------------------------|

E|---------|------------12---12---12---------|-----------------------------|---------|
B|---------|---------------------------------|-------12---12---12----------|---------|
G|-%-------|-%-----%-------------------%-----|-%-----12---12---12----%-----|-%-------|
D|-%-------|-%-----%-------------------%-----|-%---------------------%-----|-%-------|
A|---------|---------------------------------|-----------------------------|---------|
E|---------|---------------------------------|-----------------------------|---------|

E|---------|---------|---------|-------------10--10--10----|-10------------|---------|
B|---------|---------|---------|---------------------------|---------------|---------|
G|-%-------|-%-------|-%-------|-%------%------------------|---------%-----|-%-------|
D|-%-------|-%-------|-%-------|-%------%------------------|---------%-----|-%-------|
A|---------|---------|---------|---------------------------|---------------|---------|
E|---------|---------|---------|---------------------------|---------------|---------|

E|---------|---------|---------|---------|---------|---------|---------|-----------------------2----|
B|---------|---------|---------|---------|---------|---------|---------|-------------0---------3----|
G|-%-------|-%-------|-%-------|-%-------|-%-------|-%-------|-%-------|-%------%---------X----2----|
D|-%-------|-%-------|-%-------|-%-------|-%-------|-%-------|-%-------|-%------%---------X---------|
A|---------|---------|---------|---------|---------|---------|---------|----------------------------|
E|---------|---------|---------|---------|---------|---------|---------|----------------------------|

E|-2------2------|---------|--------2-------------------|------0-----------------|----------------------------|
B|-3------3------|---------|-------------3----0----3----|-3----------------------|----------------------------|
G|-2------2------|-%-------|-%--------------------------|-----------%-----%------|-%------%-------------------|
D|---------------|-%-------|-%--------------------------|-----------%-----%------|-%------%----0--------------|
A|---------------|---------|----------------------------|------------------------|----------------------------|
E|---------------|---------|----------------------------|------------------------|------------------3----0----|

E|---------|---------------|--------------10----|-10-----10---5----5---5---3----|-3---3-----3--------------------------------------|
B|---------|---------------|--------------------|-------------------------------|--------------------------------------------------|
G|---------|--------%------|-%------%-----------|-------------------------------|----------------%----%----2---2---2---2---2---2---|
D|---------|--------%------|-%------%-----------|-------------------------------|----------------%----%----------------------------|
A|---------|---------------|--------------------|-------------------------------|--------------------------------------------------|
E|-0-------|-0-------------|--------------------|-------------------------------|--------------------------------------------------|

E|-------------------10----|-10----12--10----10--7---10-----|-10----------7-------------|
B|-------------------------|--------------------------------|-----------------5---5-----|
G|-2-----%-----%-----------|--------------------------------|--------%------------------|
D|-------%-----%-----------|--------------------------------|--------%------------------|
A|-------------------------|--------------------------------|---------------------------|
E|-------------------------|--------------------------------|---------------------------|

E|-12--14--15--15--15----15-----15---|-15---15--14--12------15----15------------------|
B|-----------------------------------|-------------------------------------------15---|
G|-----------------------------------|------------------%--------------16---%---------|
D|-----------------------------------|------------------%-------------------%---------|
A|-----------------------------------|------------------------------------------------|
E|-----------------------------------|------------------------------------------------|

E|------------10--------10----12--------12---|------------------------------------------------|
B|-15----15--------12------------------------|------12----12--------X-------------------------|
G|---------------------------------12--------|-12--------------%---------2---2---2---2---2----|
D|-------------------------------------------|-----------------%------------------------------|
A|-------------------------------------------|------------------------------------------------|
E|-------------------------------------------|------------------------------------------------|

E|------------------0----2----|-2------2-----2-----|---------|---------|---------|-------------------------------|
B|--------0----0----0----3----|-3------3-----3-----|---------|---------|---------|-------------------------------|
G|--------0----0---------2----|-2------2-----2-----|-%-------|-%-------|-%-------|-%------%----------------------|
D|-2----------------2---------|--------------------|-%-------|-%-------|-%-------|-%------%------------2---------|
A|----------------------------|--------------------|---------|---------|---------|-------------------------------|
E|----------------------------|--------------------|---------|---------|---------|-------------2---3--------3----|

E|---------|---------|--------------10---10---|-10-----10----------|--------------2----|
B|---------|---------|------------------------|--------------------|---------0----3----|
G|---------|-%-------|-%------%---------------|--------------%-----|-%------------2----|
D|---------|-%-------|-%------%---------------|--------------%-----|-%------------0----|
A|---------|---------|------------------------|--------------------|-------------------|
E|-0-------|---------|------------------------|--------------------|-------------------|

E|-2-------|---------|---------|---------|---------|---------|---------|---------|---------|
B|-3-------|---------|---------|---------|---------|---------|---------|---------|---------|
G|-2-------|-%-------|-%-------|-%-------|-%-------|-%-------|-%-------|-%-------|-%-------|
D|-0-------|-%-------|-%-------|-%-------|-%-------|-%-------|-%-------|-%-------|-%-------|
A|---------|---------|---------|---------|---------|---------|---------|---------|---------|
E|---------|---------|---------|---------|---------|---------|---------|---------|---------|

E|---------|-------------------|---------|---------------|---------|---------|---------|
B|---------|-------------------|---------|---------------|---------|---------|---------|
G|---------|--------------%----|---------|---------%-----|---------|---------|---------|
D|-5-------|-5-------5----%----|-7-------|-7-------%-----|-5-------|-5-------|-7-------|
A|-5-------|-5-------5---------|-7-------|-7-------------|-5-------|-5-------|-7-------|
E|-3-------|-3-------3---------|-5-------|-5-------------|-3-------|-3-------|-5-------|

E|---------------|---------|---------|---------|---------|---------|-17------|------------17---17-----|
B|---------------|---------|---------|---------|---------|---------|---------|------------------------|
G|---------%-----|-4-------|-4-------|-%-------|-%-------|-%-------|---------|-%-----%----------------|
D|-7-------%-----|-4-------|-4-------|-%-------|-%-------|-%-------|---------|-%-----%----------------|
A|-7-------------|-2-------|-2-------|---------|---------|---------|---------|------------------------|
E|-5-------------|---------|---------|---------|---------|---------|---------|------------------------|

E|-17------------|------------17---17-----|-17------------|---------------|-----------12------|
B|---------------|------------------------|---------------|---------------|-------------------|
G|--------%------|-%-----%----------------|--------%------|-%------%------|-%----%------------|
D|--------%------|-%-----%----------------|--------%------|-%------%------|-%----%------------|
A|---------------|------------------------|---------------|---------------|-------------------|
E|---------------|------------------------|---------------|---------------|-------------------|

E|-12----------------|---------|---------|---------|---------|---------|---------|---------|
B|------10---10------|---------|---------|---------|---------|---------|---------|---------|
G|-------------------|-%-------|-%-------|---------|-%-------|-%-------|-%-------|-%-------|
D|-------------------|-%-------|-%-------|---------|-%-------|-%-------|-%-------|-%-------|
A|-------------------|---------|---------|---------|---------|---------|---------|---------|
E|-------------------|---------|---------|-0-------|---------|---------|---------|---------|

E|---------|---------|---------|-----------------------------------------|----------------------------|
B|---------|---------|---------|-----------------------------------------|------------------0----7----|
G|-%-------|-%-------|-%-------|-%---------------------------------------|-------------0----0----7----|
D|-%-------|-%-------|-%-------|-%----0----2----X----X----0----0---------|-----------------------7----|
A|---------|---------|---------|-----------------------------------------|----------------------------|
E|---------|---------|---------|------------------------------------0----|-0------0-------------------|

E|-------------------|---------|---------|---------|-------------------------------|
B|-7-------7---------|---------|---------|---------|-------------------------------|
G|-7-------7---------|---------|-%-------|-%-------|-%------%----------------------|
D|---------7----7----|-7-------|-%-------|-%-------|-%------%------------0---------|
A|-------------------|---------|---------|---------|-------------1---2-------------|
E|-------------------|---------|---------|---------|--------------------------0----|

E|---------|----------------------------|----------------------|----------------------------|
B|---------|----------------------------|----------------------|----------------------------|
G|---------|-%------%-------------------|--------------7---9---|-7------7----7----%----4----|
D|---------|-%------%---------0---------|--------------7---9---|-7------7----7----%---------|
A|---------|-------------2--------------|--------------5---7---|-5------5----5--------------|
E|-0-------|-----------------------0----|-0-------0------------|----------------------------|

E|--------------------|---------------0----0----0----0-----0---|-0---0---0----0-----0----0----------------0---0---|
B|--------------------|---------------5---------5----5-----5---|-5---5---0----0-----0----0----2---3---2---0---0---|
G|-4------4----4------|-2---0---%------------------------------|--------------------------------------------------|
D|--------------------|---------%------------------------------|--------------------------------------------------|
A|--------------------|----------------------------------------|--------------------------------------------------|
E|--------------------|----------------------------------------|--------------------------------------------------|

E|-0----0---------------------------------|------------------------------------|-------------------------------------------------|
B|-0----0----0----------------------------|------------------------------------|-------------------------------------------------|
G|----------------%----%----2---2---2-----|-2----2---0---2-----2----------0----|-0----------0--------------------0---------------|
D|----------------%----%------------------|--------------------------2---------|------0----------2---0---------------------------|
A|----------------------------------------|------------------------------------|-------------------------2---0-------2---0-------|
E|----------------------------------------|------------------------------------|---------------------------------------------3---|

E|-------------------------------------|---------------------------|------------0----------------|
B|-------------------------------------|--------0------------------|------5----------5-----------|
G|---------------------------9----7----|-7-----------2---2---2-----|-%---------------------2-----|
D|---------------------------9----7----|-7-------------------------|-%---------------------------|
A|----------------------7--------------|---------------------------|-----------------------------|
E|-0-----0---0-----0-------------------|---------------------------|-----------------------------|

E|-------------------------------------------|-----------------------------------------------------|
B|-------------------------------------------|-----------------------------------------------------|
G|-2----2-----2----2----2----2---4---0---2---|-2-----0---2---2----2---3---2---0---2---2---0---2----|
D|-------------------------------------------|-----------------------------------------------------|
A|-------------------------------------------|-----------------------------------------------------|
E|-------------------------------------------|-----------------------------------------------------|

E|-------------------------------0----|-0---------0----5---0---0---3---0---0---5---0---0---3---|
B|-------------------------5----------|------5-------------------------------------------------|
G|-2-----2---0---%----%---------------|--------------------------------------------------------|
D|---------------%----%---------------|--------------------------------------------------------|
A|------------------------------------|--------------------------------------------------------|
E|------------------------------------|--------------------------------------------------------|

E|-0---0---5---0---0---3-----3-----2----2----|-2----2----2----2----------------|------0----------------------------------------------------|
B|---------------------5-----5-----3----3----|----------------------------5----|-5---------3---0-------------------------------------------|
G|-------------------------------------------|-0----0----0----0----0-----------|-------------------3---3---0-------2-----------------------|
D|-------------------------------------------|---------------------------------|-------------------------------2-------2---0---2---0-------|
A|-------------------------------------------|---------------------------------|-----------------------------------------------------------|
E|-------------------------------------------|---------------------------------|-------------------------------------------------------5---|

E|--------------------|------------12---14---15---17-----|-17---15---15--15--15---15----15--17----|
B|-------------17-----|-17----17-------------------------|----------------------------------------|
G|--------------------|----------------------------------|----------------------------------------|
D|--------------------|----------------------------------|----------------------------------------|
A|--------------------|----------------------------------|----------------------------------------|
E|-0------0-----------|----------------------------------|----------------------------------------|

E|-17---------------17---17--19----|-19---15--15--15--17----14--------17------17------17--|
B|---------------------------------|------------------------------------------------------|
G|-------%-----%-------------------|------------------------------%-------%-------%-------|
D|-------%-----%-------------------|------------------------------%-------%-------%-------|
A|---------------------------------|------------------------------------------------------|
E|---------------------------------|------------------------------------------------------|

E|-17-----17--15--17---------0----|-0----0-----------------------------------------|
B|--------------------------------|------------------------------------------------|
G|----------------------%----0----|-5----5----5----3----0--------------------------|
D|----------------------%---------|--------------------------2-----2---2---0-------|
A|--------------------------------|--------------------------------------------2---|
E|--------------------------------|------------------------------------------------|

E|--------------------------------------------------|---------------------------------|
B|--------------------------------------------------|---------------------------------|
G|-2---0--------------------------------------------|------------------0----2----0----|
D|---------2----0----2------------------------------|---------------------------------|
A|----------------------------0---------------------|---------------------------------|
E|------------------------3-------3---0---0----5----|-5-----5-----5-------------------|

E|-------------------------5----0---------|----------------------------------------|
B|-------------------------5---------5----|-5-----8----8----8----8----7---8---8----|
G|--------------------%-------------------|------------7----7----------------------|
D|-2-----X---X---X----%-------------------|----------------------------------------|
A|-------X---X---X------------------------|----------------------------------------|
E|----------------------------------------|----------------------------------------|

E|---------------------------------------------------------------------|-----------------------X---X---15---|
B|-8---8---7-------8---7-----------------------------------------------|------------------------------------|
G|-------------9-----------9---7---9---7---------------2---0-----------|-----------------%------------------|
D|-----------------------------------------9---7---5-----------2---0---|-----------------%------------------|
A|---------------------------------------------------------------------|-5-----5----5-----------------------|
E|---------------------------------------------------------------------|------------------------------------|

E|-15----15--12--14--15---15---15-----|------15---14--12--15---15----14--12-------|
B|------------------------------------|--------------------------------------15---|
G|------------------------------------|-%-----------------------------------------|
D|------------------------------------|-%-----------------------------------------|
A|------------------------------------|-------------------------------------------|
E|------------------------------------|-------------------------------------------|

E|------12--------------------------------|------------------------------------|-------------------------------------|
B|-15------------15-----------------------|------------------------------------|------------7--------------8----0----|
G|-----------14------14---14----4---2-----|------------------------------------|-%-----%----7------------------------|
D|----------------------------------------|-2----2----2----0----2------2---0---|-%-----%----7----7----0--------------|
A|----------------------------------------|------------------------------------|-------------------------------------|
E|----------------------------------------|------------------------------------|-------------------------------------|

E|-------------------------------------|----------------------------14---|-14-----14---14---14--14--14--12--|
B|-15-----15---15--12--14--12----------|-----------------------12--------|----------------------------------|
G|-----------------------------14--14--|-12----12---%-----%--------------|----------------------------------|
D|-------------------------------------|------------%-----%--------------|----------------------------------|
A|-------------------------------------|---------------------------------|----------------------------------|
E|-------------------------------------|---------------------------------|----------------------------------|

E|-14----14--14----14---12---14---15--17----|-17-----15---15---14--12--14----|-14--12------12-------------------------------|
B|------------------------------------------|--------------------------------|---------15------15--15----15-------15--15----|
G|------------------------------------------|--------------------------------|--------------------------------14------------|
D|------------------------------------------|--------------------------------|----------------------------------------------|
A|------------------------------------------|--------------------------------|----------------------------------------------|
E|------------------------------------------|--------------------------------|----------------------------------------------|

E|-------------------|----------------------------|------------------------|-----------------------------------------------|
B|-15------15---15---|-15-----15--------0---------|------------------------|-----------------------------------------------|
G|-------------------|----------------------------|-12----12---12---14-----|-14---12---14---14---14---12--------------0----|
D|-------------------|-----------------------14---|------------------------|-------------------------------14----14--------|
A|-------------------|-------------7--------------|------------------------|-----------------------------------------------|
E|-------------------|----------------------------|------------------------|-----------------------------------------------|

E|-------------------0----0----|--------------0----0----0----------------------|------------------------------------------------|
B|-------------------0----0----|-5----3---0---0----0----5----------------------|------------------------------------------------|
G|-2-----2-----2---------------|-----------------------------2----0------------|-------0----------------------------------------|
D|-----------------------------|---------------------------------------2---0---|-2----------2---0----------------0--------------|
A|-----------------------------|-----------------------------------------------|--------------------2---0-----------------------|
E|-----------------------------|-----------------------------------------------|----------------------------3---------3----0----|

E|------------------------------------------|-----------------------------------------------------|
B|------------------------------------------|-----------------------------------------------------|
G|------------------------------------------|-----------0------------2---2---0----2---0-----------|
D|-0---2---0---2---2----5---2---7----7------|-0----2---------0---2------------------------2---2---|
A|------------------------------------------|-----------------------------------------------------|
E|------------------------------------------|-----------------------------------------------------|

E|--------X-----------|------------12---12---12---12----|------12----11----12----12--12------|
B|--------X----15-----|-15---------15--------15---------|------15----14----15------------15--|
G|--------------------|-------%-------------------------|-%----------------------------------|
D|-0------------------|-------%-------------------------|-%----------------------------------|
A|--------------------|---------------------------------|------------------------------------|
E|--------------------|---------------------------------|------------------------------------|

E|-------12------------------12--12----|-12--------------14--------------|-----------------------X---------|
B|-15---------15---15---17-------15----|-15--17----17----17----19--19----|-19----17---19---19--------19----|
G|-------------------------------------|---------------------------------|---------------------------------|
D|-------------------------------------|---------------------------------|---------------------------------|
A|-------------------------------------|---------------------------------|---------------------------------|
E|-------------------------------------|---------------------------------|---------------------------------|

E|------17----17---17---17--17--17----17--|-17-------17------17------17------17------17------17------19--|
B|------20---------20-------20--20----20--|-20---20------20------20------20------20------20------20------|
G|-%--------------------------------------|--------------------------------------------------------------|
D|-%--------------------------------------|--------------------------------------------------------------|
A|----------------------------------------|--------------------------------------------------------------|
E|----------------------------------------|--------------------------------------------------------------|

E|-19-----19--19----19----|----------------------------------0---X-------|-------------------------------------|
B|------------------------|------------------------------------------X---|-X----12---12---12---12----12--------|
G|------------------------|-2----2---2---0---------------9---------------|------12---12---12---12----12---%----|
D|------------------------|------------------2-----2---------------------|------12---12---12---12----12---%----|
A|------------------------|----------------------------------------------|-------------------------------------|
E|------------------------|----------------------------------------------|-------------------------------------|

E|------------------------------------------|-----------------------------------------------------|
B|------------------------------------------|-----------------------------------------------------|
G|-7----------------------------------------|-----------------------------------------------------|
D|-7----7----7---7---7---5---7------X---X---|---------------------------0---------------2----2----|
A|------------------------------------------|-7----7----------------------------------------------|
E|------------------------------------------|-----------5---5---3---0-------3---0---X-------------|

E|-----------------------------------------------|--------------------------------------------|
B|-----------------------------------------------|---------------------------------------7----|
G|-----------------------------------------------|----------------7---9---9----7----9---------|
D|-2----4----5----4---5---5----7----5---4---9----|-9----7----9--------------------------------|
A|-----------------------------------------------|--------------------------------------------|
E|-----------------------------------------------|--------------------------------------------|

E|-----------------------------------------------------------------|--------------------|
B|-8---7---5-------5---3---0-------3---0---------------------------|--------------------|
G|-------------7---------------2-------------------0---------------|-------%-----%------|
D|-----------------------------------------2---0-------2---0-------|-------%-----%------|
A|-------------------------------------------------------------2---|--------------------|
E|-----------------------------------------------------------------|-5------------------|

E|---------|
B|---------|
G|-%-------|
D|-%-------|
A|---------|
E|---------|
Pink Floyd - Sorrow (2)
Pink Floyd - Sorrow (2).gp4