Pink Floyd - Sorrow (live bass only)

Pink Floyd



Title: Sorrow (live)
Album: 
Artist: Pink floyd
Author: 

Track 1: Piste 2
G|----------------------------|----------------------------|----------------------------|
D|----------------------------|----------------------------|----------------------------|
A|-7------7----7------5---5---|-7------7----7------5---5---|-7------7----7------7-------|
E|----------------------------|----------------------------|------------------------12--|

G|-----------------12--11-----------------------------|----------------------------|
D|---------12--9-----------12--9---14---12--9---7-----|----------------------------|
A|-14--12---------------------------------------------|-7------7----7------5---7---|
E|----------------------------------------------------|----------------------------|

G|-----------------------------------------|----------------------------|---------------------------------|
D|-5----4-----------------------------%----|----------------------------|-----------------------7-----5---|
A|-----------7----5----7---------5----%----|-7------7----7------5---5---|-7------7----7-----7-------------|
E|--------------------------7--------------|----------------------------|---------------------------------|

G|----------------------------|-----------------------------------------|----------------------------|
D|----------------------------|-5----4-----------------------------%----|----------------------------|
A|-7------7----7------5---7---|-----------7----5----7---------5----%----|-7------7----7------5---5---|
E|----------------------------|--------------------------7--------------|----------------------------|

G|---------------------------------|----------------------------|-------------------------|
D|-----------------------7-----5---|----------------------------|-------------------------|
A|-7------7----7-----7-------------|-7------7----7------5---5---|-7------7----7-----5-----|
E|---------------------------------|----------------------------|-------------------------|

G|----------------------------|-------------------------------------|----------------------------|
D|----------------------------|-5----4------------------------------|----------------------------|
A|-7------7----7------5---7---|-----------7----5----7---------5-----|-7------7----7------5---5---|
E|----------------------------|--------------------------7----------|----------------------------|

G|---------------------------------|----------------------------|-------------------------------------|
D|-----------------------7-----5---|----------------------------|-5----4------------------------------|
A|-7------7----7-----7-------------|-7------7----7------5---7---|-----------7----5----7---------5-----|
E|---------------------------------|----------------------------|--------------------------7----------|

G|----------------------------|---------------------------------|----------------------------|
D|----------------------------|-----------------------7-----5---|----------------------------|
A|-7------7----7------5---5---|-7------7----7-----7-------------|-7------7----7------5---5---|
E|----------------------------|---------------------------------|----------------------------|

G|------------------------------------------|----------------------------|-------------------------------------|
D|---------------5-------7-------9----------|----------------------------|-5----4------------------------------|
A|-7-----7---7-------7-------7---------5----|-7------7----7------5---7---|-----------7----5----7---------5-----|
E|------------------------------------------|----------------------------|--------------------------7----------|

G|----------------------------|---------------------------------|----------------------------|
D|----------------------------|-----------------------7-----5---|----------------------------|
A|-7------7----7------5---5---|-7------7----7-----7-------------|-7------7----7------5---7---|
E|----------------------------|---------------------------------|----------------------------|

G|-------------------------------------|----------------------------|---------------------------------|
D|-5----4------------------------------|----------------------------|-----------------------7-----5---|
A|-----------7----5----7---------5-----|-7------7----7------5---5---|-7------7----7-----7-------------|
E|--------------------------7----------|----------------------------|---------------------------------|

G|----------------------------|-------------------------------------|----------------------------|
D|----------------------------|-5----4------------------------------|----------------------------|
A|-7------7----7------5---7---|-----------7----5----7---------5-----|-7------7----7------5---5---|
E|----------------------------|--------------------------7----------|----------------------------|

G|---------------------------------|----------------------------|-------------------------------------|
D|-----------------------7-----5---|----------------------------|-5----4------------------------------|
A|-7------7----7-----7-------------|-7------7----7------5---7---|-----------7----5----7---------5-----|
E|---------------------------------|----------------------------|--------------------------7----------|

G|----------------------------|---------------------------------|----------------------------|
D|----------------------------|-----------------------7-----5---|----------------------------|
A|-7------7----7------5---5---|-7------7----7-----7-------------|-7------7----7------5---5---|
E|----------------------------|---------------------------------|----------------------------|

G|---------------------------------------------|----------------------------|-------------------------------------|
D|-----------7---5-------5---4-----------5-----|----------------------------|-5----4------------------------------|
A|-5-----5-----------7-----------7---5---------|-7------7----7------5---7---|-----------7----5----7---------5-----|
E|---------------------------------------------|----------------------------|--------------------------7----------|

G|----------------------------|---------------------------------|----------------------------|
D|----------------------------|-----------------------7-----5---|----------------------------|
A|-7------7----7------5---5---|-7------7----7-----7-------------|-7------7----7------5---7---|
E|----------------------------|---------------------------------|----------------------------|

G|-------------------------------------|----------------------------|---------------------------------|
D|-5----4------------------------------|----------------------------|-----------------------7-----5---|
A|-----------7----5----7---------5-----|-7------7----7------5---5---|-7------7----7-----7-------------|
E|--------------------------7----------|----------------------------|---------------------------------|

G|----------------------------|--------------------|---------------------|-------------------------|
D|----------------------------|--------------------|---------------------|-------------------------|
A|-7------7----7------5---5---|-7------7----7------|-2------2------2-----|-14-----14---12----12----|
E|----------------------------|--------------------|---------------------|-------------------------|

G|---------------------|-----------------------------|---------------------|-------------------------|
D|---------------------|-----------------------------|---------------------|-------------------------|
A|-9------9------------|-----------------------0-----|-2------2------2-----|-14-----14---12----12----|
E|---------------9-----|-2------2----2-----2---------|---------------------|-------------------------|

G|---------------------|-----------------------------|-----------------------------------------|
D|---------------------|-----------------------------|-----------------------------------------|
A|-9------9------------|-----------------------0-----|-----------------------------------------|
E|---------------9-----|-2------2----2-----2---------|-3----3----3----3----3----3----3----3----|

G|-----------------------------------------|-----------------------------------------|
D|-----------------------------------------|-----------------------------------------|
A|-----------------------------------------|-----------------------------------------|
E|-3----3----3----3----3----3----3----3----|-5----5----5----5----5----5----5----5----|

G|-----------------------------------------|---------|-------4------------|---------------|
D|-----------------------------------------|---------|-%-----------%------|---------------|
A|-----------------------------------------|-2-------|-%-----------%------|-2-------14----|
E|-5----5----5----5----5----5----5----5----|---------|--------------------|---------------|

G|-23--23--23--21--21--------------------------|---------|---------|---------|---------|
D|----------------------23--23--23--21--21-----|---------|---------|---------|-%-------|
A|---------------------------------------------|-2-------|-2-------|---------|-%-------|
E|---------------------------------------------|---------|---------|-7-------|---------|

G|---------|---------|-------------------------------|--------------------|---------|
D|---------|---------|--------------7---9---9---9----|-9-----%-----%------|---------|
A|-2-------|-2-------|-2------2----------------------|-------%-----%------|-2-------|
E|---------|---------|-------------------------------|--------------------|---------|

G|---------|---------------|-------------------------|----------------------------|
D|---------|---------------|-------------------------|----------------------------|
A|-2-------|-2------2------|-2-----2-----2-----2-----|-7------7----7------5---7---|
E|---------|---------------|-------------------------|----------------------------|

G|-------------------------------------|----------------------------|---------------------------------|
D|-5----4------------------------------|----------------------------|-----------------------7-----5---|
A|-----------7----5----7---------5-----|-7------7----7------5---5---|-7------7----7-----7-------------|
E|--------------------------7----------|----------------------------|---------------------------------|

G|----------------------------|-------------------------------------|----------------------------|
D|----------------------------|-5----4------------------------------|----------------------------|
A|-7------7----7------5---7---|-----------7----5----7---------5-----|-7------7----7------5---5---|
E|----------------------------|--------------------------7----------|----------------------------|

G|---------------------------------|----------------------------|------------------------------------------|
D|-----------------------7-----5---|----------------------------|---------------5-------7-------9----------|
A|-7------7----7-----7-------------|-7------7----7------5---5---|-7-----7---7-------7-------7---------5----|
E|---------------------------------|----------------------------|------------------------------------------|

G|----------------------------|-------------------------------------|----------------------------|
D|----------------------------|-5----4------------------------------|----------------------------|
A|-7------7----7------5---7---|-----------7----5----7---------5-----|-7------7----7------5---5---|
E|----------------------------|--------------------------7----------|----------------------------|

G|---------------------------------|----------------------------|-------------------------------------|
D|-----------------------7-----5---|----------------------------|-5----4------------------------------|
A|-7------7----7-----7-------------|-7------7----7------5---7---|-----------7----5----7---------5-----|
E|---------------------------------|----------------------------|--------------------------7----------|

G|----------------------------|------------------------------|----------------------------|
D|----------------------------|------------------------------|----------------------------|
A|-7------7----7------5---5---|-7------7----7-----7-----7----|-7------7----7------5---7---|
E|----------------------------|------------------------------|----------------------------|

G|-------------------------------------|----------------------------|---------------------------------|
D|-5----4------------------------------|----------------------------|-----------------------7-----5---|
A|-----------7----5----7---------5-----|-7------7----7------5---5---|-7------7----7-----7-------------|
E|--------------------------7----------|----------------------------|---------------------------------|

G|----------------------------|-------------------------------------|----------------------------|
D|----------------------------|-5----4------------------------------|----------------------------|
A|-7------7----7------5---7---|-----------7----5----7---------5-----|-7------7----7------5---5---|
E|----------------------------|--------------------------7----------|----------------------------|

G|---------------------------------|----------------------------|-------------------------------------|
D|-----------------------7-----5---|----------------------------|-5----4------------------------------|
A|-7------7----7-----7-------------|-7------7----7------5---7---|-----------7----5----7---------5-----|
E|---------------------------------|----------------------------|--------------------------7----------|

G|----------------------------|---------------------------------|----------------------------|
D|----------------------------|-5----4---------%----%-----7-----|----------------------------|
A|-7------7----7------5---7---|-----------7----%----%-----------|-7------7----7------5---7---|
E|----------------------------|---------------------------------|----------------------------|

G|-------------------------------------|----------------------------|---------------------------------|
D|-5----4------------------------------|----------------------------|-----------------------7-----5---|
A|-----------7----5----7---------5-----|-7------7----7------5---5---|-7------7----7-----7-------------|
E|--------------------------7----------|----------------------------|---------------------------------|

G|----------------------------|----------------------------|---------|---------|
D|----------------------------|-5----4--------------%------|---------|-%-------|
A|-7------7----7------5---7---|-----------7----5----%------|-7-------|-%-------|
E|----------------------------|----------------------------|---------|---------|
Pink Floyd - Sorrow (live bass only)
Pink Floyd - Sorrow (live bass only).gp3