Pink Floyd - Take it back

Pink Floyd



Title: Take It Back
Album: 
Artist: 
Author: Pink Floyd

Track 1: Guitare 1
E|-------------------|---------------10----|-12-----------------|--------------------|
B|--------------10---|-10-----12-----------|---------------12---|-12-----12---10-----|
G|-12------12--------|---------------------|--------12----------|--------------------|
D|-------------------|---------------------|--------------------|--------------------|
A|-------------------|---------------------|--------------------|--------------------|
E|-------------------|---------------------|--------------------|--------------------|

E|--------------------|--------------------|-----------------------12----|-12-----12--10-----------------|
B|--------------------|-------------10-----|-10----12--12----12----------|----------------12---12--12----|
G|-12-----12---12-----|-12-----12----------|-----------------------------|-------------------------------|
D|--------12---12-----|-12-----12----------|-----------------------------|-------------------------------|
A|--------------------|--------------------|-----------------------------|-------------------------------|
E|--------------------|--------------------|-----------------------------|-------------------------------|

E|------------------------|---------|---------------------------------|--------10---12----12--------|
B|-12-----10----8---8-----|-8-------|-8-----8-----10--10----10--12----|-12----------------------12--|
G|------------------------|---------|---------------------------------|-----------------------------|
D|------------------------|---------|---------------------------------|-----------------------------|
A|------------------------|---------|---------------------------------|-----------------------------|
E|------------------------|---------|---------------------------------|-----------------------------|

E|-12----12----10---------|---------------|---------------|-----------------------------|
B|-----------------12-----|-12------------|---------------|-----------10----10----12----|
G|------------------------|--------12-----|-12------12----|-12----12--------------------|
D|------------------------|---------------|---------------|-----------------------------|
A|------------------------|---------------|---------------|-----------------------------|
E|------------------------|---------------|---------------|-----------------------------|

E|------10----12---12----------|------------------------|--------------------|---------|
B|-12--------------------12----|-12-----12----12--10----|-10-----------------|---------|
G|-----------------------------|------------------------|--------12---12-----|-12------|
D|-----------------------------|------------------------|--------------------|---------|
A|-----------------------------|------------------------|--------------------|---------|
E|-----------------------------|------------------------|--------------------|---------|

E|------------------------|------10---12----12-----|-12------------------------------|
B|------10----10---12-----|-12---------------------|-------10--10--12----12-----10---|
G|-12---------------------|------------------------|---------------------------------|
D|------------------------|------------------------|---------------------------------|
A|------------------------|------------------------|---------------------------------|
E|------------------------|------------------------|---------------------------------|

E|--------------------|---------|------------------------|-----12----12----12-----|
B|-10-----------------|---------|-10----10----12--12-----|-12---------------------|
G|-------12----12-----|-12------|------------------------|------------------------|
D|--------------------|---------|------------------------|------------------------|
A|--------------------|---------|------------------------|------------------------|
E|--------------------|---------|------------------------|------------------------|

E|-12--10-----------------|------------------------|-------------------------|-----------------------10---10---|
B|-----------12----10-----|-10---------------------|--------------------10---|-10----12---12---12--------------|
G|------------------------|------12---12----12-----|-12-----12---12----------|---------------------------------|
D|------------------------|------------------------|-------------------------|---------------------------------|
A|------------------------|------------------------|-------------------------|---------------------------------|
E|------------------------|------------------------|-------------------------|---------------------------------|

E|-12------12----10--|-10-----------------|-------------------|---------------|--------------------10--12--|
B|-------------------|------12-----10-----|-12------12----12--|-12------10----|-10---12-----12-------------|
G|-------------------|--------------------|-------------------|---------------|----------------------------|
D|-------------------|--------------------|-------------------|---------------|----------------------------|
A|-------------------|--------------------|-------------------|---------------|----------------------------|
E|-------------------|--------------------|-------------------|---------------|----------------------------|

E|-12------10--------|-----------------------------|---------|--------------------------------------------|
B|--------------12---|-12-----10---10----10--------|---------|----------------8----8---10--10---10---10---|
G|-------------------|-----------------------12----|-12------|-12---12---12-------------------------------|
D|-------------------|-----------------------------|---------|--------------------------------------------|
A|-------------------|-----------------------------|---------|--------------------------------------------|
E|-------------------|-----------------------------|---------|--------------------------------------------|

E|---------|-----------------------------------------|-----------------------------|
B|-12------|-12---------------------------------12---|-12-----10---10--------------|
G|---------|------12---12--------12---12---%---------|-------------------12---12---|
D|---------|----------------10-------------%---------|-----------------------------|
A|---------|-----------------------------------------|-----------------------------|
E|---------|-----------------------------------------|-----------------------------|

E|---------------|-------------------------|-------10---10---12-----10---|-12-----10----------|
B|---------------|--------10---10-----12---|-12--------------------------|-------------12-----|
G|-12------12----|-12----------------------|-----------------------------|--------------------|
D|---------------|-------------------------|-----------------------------|--------------------|
A|---------------|-------------------------|-----------------------------|--------------------|
E|---------------|-------------------------|-----------------------------|--------------------|

E|--------------------|---------|----------------------------------|---------|---------|
B|-10-----------------|---------|------------10---10----12----12---|---------|---------|
G|--------12---12-----|-%-------|-%-----%--------------------------|-%-------|-%-------|
D|--------------------|-%-------|-%-----%--------------------------|-%-------|-%-------|
A|--------------------|---------|----------------------------------|---------|---------|
E|--------------------|---------|----------------------------------|---------|---------|

E|---------|---------|-----------------------------|-----10---10--12----10---12---12----|
B|---------|---------|------10-----10--12----12----|-12---------------------------------|
G|-12------|-12------|-12--------------------------|------------------------------------|
D|---------|---------|-----------------------------|------------------------------------|
A|---------|---------|-----------------------------|------------------------------------|
E|---------|---------|-----------------------------|------------------------------------|

E|-12-----------------|-------------------|---------------|--------------------10--12--|
B|------12-----10-----|-12------12----12--|-12------10----|-10---12-----12-------------|
G|--------------------|-------------------|---------------|----------------------------|
D|--------------------|-------------------|---------------|----------------------------|
A|--------------------|-------------------|---------------|----------------------------|
E|--------------------|-------------------|---------------|----------------------------|

E|-12------10--------|-----------------------------|---------|--------------------------------------------|
B|--------------12---|-12-----10---10----10--------|---------|----------------8----8---10--10---10---10---|
G|-------------------|-----------------------12----|-12------|-12---12---12-------------------------------|
D|-------------------|-----------------------------|---------|--------------------------------------------|
A|-------------------|-----------------------------|---------|--------------------------------------------|
E|-------------------|-----------------------------|---------|--------------------------------------------|

E|---------|-----------------------------------------|-----------------------------|
B|-12------|-12---------------------------------12---|-12-----10---10--------------|
G|---------|------12---12--------12---12---%---------|-------------------12---12---|
D|---------|----------------10-------------%---------|-----------------------------|
A|---------|-----------------------------------------|-----------------------------|
E|---------|-----------------------------------------|-----------------------------|

E|---------------|-------------------------|-------10---10---12-----10---|-12-----10----------|
B|---------------|--------10---10-----12---|-12--------------------------|-------------12-----|
G|-12------12----|-12----------------------|-----------------------------|--------------------|
D|---------------|-------------------------|-----------------------------|--------------------|
A|---------------|-------------------------|-----------------------------|--------------------|
E|---------------|-------------------------|-----------------------------|--------------------|

E|--------------------|---------|----------------------------------|---------|---------|
B|-10-----------------|---------|------------10---10----12----12---|---------|---------|
G|--------12---12-----|-%-------|-%-----%--------------------------|-%-------|-%-------|
D|--------------------|-%-------|-%-----%--------------------------|-%-------|-%-------|
A|--------------------|---------|----------------------------------|---------|---------|
E|--------------------|---------|----------------------------------|---------|---------|

E|---------|---------|-----------------------------|-------10---10---12-----|---------------|
B|---------|---------|------10-----10--12----12----|-12---------------------|--------8------|
G|-12------|-12------|-12--------------------------|------------------------|-%-------------|
D|---------|---------|-----------------------------|------------------------|-%-------------|
A|---------|---------|-----------------------------|------------------------|---------------|
E|---------|---------|-----------------------------|------------------------|---------------|

E|---------------------------10----|-10------10-----------|-----------------------------|
B|-8----10--------12---12----------|--------------10--12--|-----------10----10---5------|
G|-----------%---------------------|----------------------|-12----12--------------------|
D|-----------%---------------------|----------------------|-----------------------------|
A|---------------------------------|----------------------|-----------------------------|
E|---------------------------------|----------------------|-----------------------------|

E|-------------------------------|------------------------------------|---------|-----------------------------|
B|-5------5----8---5---5---10----|-10----10--12--10---10--3-----3-----|-3-------|-3-----12----12----15--15----|
G|-------------------------------|------------------------------------|---------|-----------------------------|
D|-------------------------------|------------------------------------|---------|-----------------------------|
A|-------------------------------|------------------------------------|---------|-----------------------------|
E|-------------------------------|------------------------------------|---------|-----------------------------|

E|--------------------|---------------------------------|-------------------------------------|
B|-15---15-----15-----|-15---15-----15---12---15--12----|-12----8---8-----8---8---3-----3-----|
G|--------------------|---------------------------------|-------------------------------------|
D|--------------------|---------------------------------|-------------------------------------|
A|--------------------|---------------------------------|-------------------------------------|
E|--------------------|---------------------------------|-------------------------------------|

E|-------------------------------------|---------|----------------------------------------------|
B|-3-----0---0-------------------------|---------|--------------------------------------12--12--|
G|-------0---0-----4----7----7----9----|-9-------|-9----11--11--11--12--12---12----14-----------|
D|-------------------------------------|---------|----------------------------------------------|
A|-------------------------------------|---------|----------------------------------------------|
E|-------------------------------------|---------|----------------------------------------------|

E|---------|-------------------------------------------|-----------------------8----5----|
B|-12------|-12-------7---8-----7---7-----8---7---5----|-5-----8----7----7---------------|
G|---------|-----%-------------------------------------|---------------------------------|
D|---------|-----%-------------------------------------|---------------------------------|
A|---------|-------------------------------------------|---------------------------------|
E|---------|-------------------------------------------|---------------------------------|

E|-5-------------------------------|---------------------------------|---------------------------------|
B|-------8----7----7-----8----3----|-3-----8----7----7-----8----3----|-3-----8----7----7-----8----5----|
G|---------------------------------|---------------------------------|---------------------------------|
D|---------------------------------|---------------------------------|---------------------------------|
A|---------------------------------|---------------------------------|---------------------------------|
E|---------------------------------|---------------------------------|---------------------------------|

E|---------------------------------|---------------------------------|---------------------------------|
B|-5-----8----7----7-----8----5----|-5-----8----7----7-----8----3----|-3-----8----7----7-----8----3----|
G|---------------------------------|---------------------------------|---------------------------------|
D|---------------------------------|---------------------------------|---------------------------------|
A|---------------------------------|---------------------------------|---------------------------------|
E|---------------------------------|---------------------------------|---------------------------------|

E|---------------------------------|-----------------------------|------------------------------------------|
B|-3-----8----7----7-----8----5----|-5---------------------------|---------------------------5----5---------|
G|---------------------------------|--------%----%-----%----5----|-5-----7---5-----5----7--------------7----|
D|---------------------------------|--------%----%-----%---------|------------------------------------------|
A|---------------------------------|-----------------------------|------------------------------------------|
E|---------------------------------|-----------------------------|------------------------------------------|

E|-----------------------------|------------------------|----------------------|-------------------------------------|
B|-------------10--10---12-----|-12----15--15----15-----|-15------15---12--10--|-----------12---10---10----12---12---|
G|-7-----12--------------------|------------------------|----------------------|-12---%------------------------------|
D|-----------------------------|------------------------|----------------------|------%------------------------------|
A|-----------------------------|------------------------|----------------------|-------------------------------------|
E|-----------------------------|------------------------|----------------------|-------------------------------------|

E|---------|----------------------|---------------|-------10----12-----|-12-----------------|
B|-12------|-12------12---12--10--|-12-----10-----|-12-----------------|------12-----10-----|
G|---------|----------------------|---------------|--------------------|--------------------|
D|---------|----------------------|---------------|--------------------|--------------------|
A|---------|----------------------|---------------|--------------------|--------------------|
E|---------|----------------------|---------------|--------------------|--------------------|

E|-------------------|---------------|--------------------10--12--|-12------10--------|
B|-12------12----12--|-12------10----|-10---12-----12-------------|--------------12---|
G|-------------------|---------------|----------------------------|-------------------|
D|-------------------|---------------|----------------------------|-------------------|
A|-------------------|---------------|----------------------------|-------------------|
E|-------------------|---------------|----------------------------|-------------------|

E|-----------------------------|---------|--------------------------------------------|
B|-12-----10---10----10--------|---------|----------------8----8---10--10---10---10---|
G|-----------------------12----|-12------|-12---12---12-------------------------------|
D|-----------------------------|---------|--------------------------------------------|
A|-----------------------------|---------|--------------------------------------------|
E|-----------------------------|---------|--------------------------------------------|

E|---------|-----------------------------------------|-----------------------------|
B|-12------|-12---------------------------------12---|-12-----10---10--------------|
G|---------|------12---12--------12---12---%---------|-------------------12---12---|
D|---------|----------------10-------------%---------|-----------------------------|
A|---------|-----------------------------------------|-----------------------------|
E|---------|-----------------------------------------|-----------------------------|

E|---------------|-------------------------|-------10---10---12-----10---|-12-----10----------|
B|---------------|--------10---10-----12---|-12--------------------------|-------------12-----|
G|-12------12----|-12----------------------|-----------------------------|--------------------|
D|---------------|-------------------------|-----------------------------|--------------------|
A|---------------|-------------------------|-----------------------------|--------------------|
E|---------------|-------------------------|-----------------------------|--------------------|

E|--------------------|---------|----------------------------------|---------|---------|
B|-10-----------------|---------|------------10---10----12----12---|---------|---------|
G|--------12---12-----|-%-------|-%-----%--------------------------|-%-------|-%-------|
D|--------------------|-%-------|-%-----%--------------------------|-%-------|-%-------|
A|--------------------|---------|----------------------------------|---------|---------|
E|--------------------|---------|----------------------------------|---------|---------|

E|---------|---------|-----------------------------|--------------------|---------|
B|---------|---------|------10-----10--12----12----|-10-----------------|---------|
G|-12------|-12------|-12--------------------------|--------12---12-----|-12------|
D|---------|---------|-----------------------------|--------------------|---------|
A|---------|---------|-----------------------------|--------------------|---------|
E|---------|---------|-----------------------------|--------------------|---------|

E|--------------------|---------|-------------------------------|---------|---------------|
B|-------10----12-----|-12------|-12----10----12----12----------|---------|---------------|
G|-12-----------------|---------|-------------------------12----|-12------|-12-----12-----|
D|--------------------|---------|-------------------------------|---------|---------------|
A|--------------------|---------|-------------------------------|---------|---------------|
E|--------------------|---------|-------------------------------|---------|---------------|

E|--------------10----|-10---12---10---12---12-----|---------|---------|---------|---------|
B|-10-----12----------|----------------------------|---------|---------|---------|---------|
G|--------------------|----------------------------|-%-------|-%-------|-%-------|-%-------|
D|--------------------|----------------------------|-%-------|-%-------|-%-------|-%-------|
A|--------------------|----------------------------|---------|---------|---------|---------|
E|--------------------|----------------------------|---------|---------|---------|---------|

E|--------------------|-------10----12-----|-12-----------------|-----------------------------|
B|--------10-----12---|-12-----------------|--------12----12----|-12----10----10---8----8-----|
G|-12-----------------|--------------------|--------------------|-----------------------------|
D|--------------------|--------------------|--------------------|-----------------------------|
A|--------------------|--------------------|--------------------|-----------------------------|
E|--------------------|--------------------|--------------------|-----------------------------|

E|---------|------------------------|--------12-----|-12------------|-----------------------|
B|-8-------|-8-----8---10----10-----|-12------------|--------12-----|-10-----10--8---8------|
G|---------|------------------------|---------------|---------------|-----------------------|
D|---------|------------------------|---------------|---------------|-----------------------|
A|---------|------------------------|---------------|---------------|-----------------------|
E|---------|------------------------|---------------|---------------|-----------------------|

E|---------|---------------------------------|------10---12----12-----|-12-----10-------------------|
B|-8-------|-8-----10--10----10---12---12----|-12---------------------|-------------12----12--10----|
G|---------|---------------------------------|------------------------|-----------------------------|
D|---------|---------------------------------|------------------------|-----------------------------|
A|---------|---------------------------------|------------------------|-----------------------------|
E|---------|---------------------------------|------------------------|-----------------------------|

E|--------------------|---------|-----------------------------10--|-10--12----12----12----12----10--|
B|-10-----------------|---------|-10----10----12--12----12--------|---------------------------------|
G|-------12----12-----|-12------|---------------------------------|---------------------------------|
D|--------------------|---------|---------------------------------|---------------------------------|
A|--------------------|---------|---------------------------------|---------------------------------|
E|--------------------|---------|---------------------------------|---------------------------------|

E|-----------------------------------|-------------------------|---------------|---------------|
B|-----12----12----12----10----------|-------------------------|---------------|---------------|
G|-%---------------------------12----|-12----------------------|-9------11-----|-11------12----|
D|-%---------------------------------|--------12---12-----12---|---------------|---------------|
A|-----------------------------------|-------------------------|---------------|---------------|
E|-----------------------------------|-------------------------|---------------|---------------|

E|----------------------------|-----------------------------|---------|
B|--------7----10-------7-----|-7---------------------------|---------|
G|-12---------------%---------|--------9----9---7-----7-----|-%-------|
D|------------------%---------|-----------------------------|-%-------|
A|----------------------------|-----------------------------|---------|
E|----------------------------|-----------------------------|---------|
Pink Floyd - Take it back
Pink Floyd - Take it back.gp3