Pink Floyd - The Final Cut

Pink Floyd



Title: The Final Cut (solo)
Album: The Final Cut
Artist: Pink Floyd
Author: Roger Waters

Track 1: Track 1
E|-13-----------20---|-17------|-------13----13-----|-13----12---10----------|-------------12----13----|
B|-------------------|---------|-13-----------------|-----------------13-----|-13----15----------------|
G|---------%---------|---------|--------------------|------------------------|-------------------------|
D|---------%---------|---------|--------------------|------------------------|-------------------------|
A|-------------------|---------|--------------------|------------------------|-------------------------|
E|-------------------|---------|--------------------|------------------------|-------------------------|

E|-13---12----------------|-------------------------|-------------------------|-------------------|
B|------------15---15-----|-15----13----------------|-------------------------|-------------------|
G|------------------------|--------------14---14----|-10----12-----14---12----|-14---12---10------|
D|------------------------|-------------------------|-------------------------|-------------------|
A|------------------------|-------------------------|-------------------------|-------------------|
E|------------------------|-------------------------|-------------------------|-------------------|

E|-15----15----15-----|-------13----13-----|-13---12-----------------|-------------------|
B|--------------------|-13-----------------|-------------13---11-----|-------------------|
G|--------------------|--------------------|-------------------------|-14---12---10------|
D|--------------------|--------------------|-------------------------|-------------------|
A|--------------------|--------------------|-------------------------|-------------------|
E|--------------------|--------------------|-------------------------|-------------------|
Pink Floyd - The Final Cut
Pink Floyd - The Final Cut.gp3