Pink Floyd - The Great Gig In The Sky (2)

Pink Floyd



Title: The Great Gig in the Sky
Album: The Dark Side of the Moon
Artist: Pink Floyd
Author: Richard Wright

Track 1: Slide Guitar R (Gilmour)
E|---------|---------|---------|---------|---------|---------|-3-------------|--------------------|
B|---------|---------|---------|---------|---------|---------|-3-------3-----|-5------5-----------|
G|-%-------|-%-------|-%-------|-%-------|-%-------|-%-------|---------3-----|-5------5----4------|
D|-%-------|-%-------|-%-------|-%-------|-%-------|-%-------|---------------|--------------------|
A|---------|---------|---------|---------|---------|---------|---------------|--------------------|
E|---------|---------|---------|---------|---------|---------|---------------|--------------------|

E|--------------------|---------------|-------------------|-8-----------8-----------|
B|-10----------10-----|---------3-----|-8-----------------|-------8-----8-----8-----|
G|-10-----%----10-----|-7-------------|-8-------%----5----|-------------8-----------|
D|--------%-----------|---------------|---------%---------|-------------------------|
A|--------------------|---------------|-------------------|-------------------------|
E|--------------------|---------------|-------------------|-------------------------|

E|------------------------|-------------------------|---------|---------|---------|
B|-10-----10----10--------|-------------------------|---------|-3-------|---------|
G|--------10----------%---|-7------7----12----------|-3-------|-3-------|-%-------|
D|--------------------%---|--------------------3----|-3-------|---------|-%-------|
A|------------------------|-------------------------|---------|---------|---------|
E|------------------------|-------------------------|---------|---------|---------|

E|---------|---------|---------|---------|---------|---------|---------|---------|---------|
B|---------|---------|---------|---------|---------|---------|---------|---------|---------|
G|-%-------|-%-------|-%-------|-%-------|-%-------|-%-------|-%-------|-%-------|-%-------|
D|-%-------|-%-------|-%-------|-%-------|-%-------|-%-------|-%-------|-%-------|-%-------|
A|---------|---------|---------|---------|---------|---------|---------|---------|---------|
E|---------|---------|---------|---------|---------|---------|---------|---------|---------|

E|---------|---------|---------|---------|---------|---------|---------|---------|---------|
B|---------|---------|---------|---------|---------|---------|---------|---------|---------|
G|-%-------|-%-------|-%-------|-%-------|-%-------|-%-------|-%-------|-%-------|-%-------|
D|-%-------|-%-------|-%-------|-%-------|-%-------|-%-------|-%-------|-%-------|-%-------|
A|---------|---------|---------|---------|---------|---------|---------|---------|---------|
E|---------|---------|---------|---------|---------|---------|---------|---------|---------|

E|---------|---------|--------|---------|---------|---------|---------|---------|---------|
B|---------|---------|--------|---------|---------|---------|---------|---------|---------|
G|-%-------|-%-------|-%------|-%-------|-%-------|-%-------|-%-------|-%-------|-%-------|
D|-%-------|-%-------|-%------|-%-------|-%-------|-%-------|-%-------|-%-------|-%-------|
A|---------|---------|--------|---------|---------|---------|---------|---------|---------|
E|---------|---------|--------|---------|---------|---------|---------|---------|---------|

E|---------|---------|---------|---------|---------|---------|---------|---------|---------|
B|---------|---------|---------|---------|---------|---------|---------|---------|---------|
G|-%-------|-%-------|-%-------|-%-------|-%-------|-%-------|-%-------|-%-------|-%-------|
D|-%-------|-%-------|-%-------|-%-------|-%-------|-%-------|-%-------|-%-------|-%-------|
A|---------|---------|---------|---------|---------|---------|---------|---------|---------|
E|---------|---------|---------|---------|---------|---------|---------|---------|---------|

E|---------|---------|---------|---------|---------|---------|---------|---------|---------|
B|---------|---------|---------|---------|---------|---------|---------|---------|---------|
G|-%-------|-%-------|-%-------|-%-------|-%-------|-%-------|-%-------|-%-------|-%-------|
D|-%-------|-%-------|-%-------|-%-------|-%-------|-%-------|-%-------|-%-------|-%-------|
A|---------|---------|---------|---------|---------|---------|---------|---------|---------|
E|---------|---------|---------|---------|---------|---------|---------|---------|---------|

E|---------|---------|---------|---------|---------|---------|---------|---------|
B|---------|---------|---------|---------|---------|---------|---------|---------|
G|-%-------|-%-------|-%-------|-%-------|-%-------|-%-------|-%-------|-%-------|
D|-%-------|-%-------|-%-------|-%-------|-%-------|-%-------|-%-------|-%-------|
A|---------|---------|---------|---------|---------|---------|---------|---------|
E|---------|---------|---------|---------|---------|---------|---------|---------|
Pink Floyd - The Great Gig In The Sky (2)
Pink Floyd - The Great Gig In The Sky (2).gp4