Pink Floyd - The Happiest Days in our Lives

Pink Floyd



Title: The happiest days in our lives
Album: The Wall
Artist: Pink Floyd
Author: Roger Waters

Track 1: Guitar 1
E|---------|---------|---------|---------|---------|---------|-----------------------------------------------|
B|---------|---------|---------|---------|---------|---------|-----------------------------------------------|
G|-%-------|-%-------|-%-------|-%-------|-%-------|-%-------|-----------------------------------------------|
D|-%-------|-%-------|-%-------|-%-------|-%-------|-%-------|-----------------------------------------------|
A|---------|---------|---------|---------|---------|---------|-5-----5---5----5----5---5----5---5----5---5---|
E|---------|---------|---------|---------|---------|---------|-----------------------------------------------|

E|-----------------------------------------------------|-----------------------------------------------|
B|-----------------------------------------------------|-----------------------------------------------|
G|-----------------------------------------------------|-----------------------------------------------|
D|-----------------------------------------------------|-----------------------------------------------|
A|-5-----5---5----5---5---5---5---5---5---5----5---5---|-5-----5---5----5----5---5----5---5----5---5---|
E|-----------------------------------------------------|-----------------------------------------------|

E|--------------------------------------------------|-----------------------------------------------------|
B|--------------------------------------------------|-----------------------------------------------------|
G|--------------------------------------------------|-----------------------------------------------------|
D|--------------------------------------------------|-----------------------------------------------------|
A|-5----5---5---3----3---3---1----1---1-------------|-----------------------------------------------------|
E|----------------------------------------5----3----|-3---3----3---3----3---3---3---3----3---3----3---3---|

E|-----------------------------------------------------|-----------------------------------------------------|
B|-----------------------------------------------------|-----------------------------------------------------|
G|-----------------------------------------------------|-----------------------------------------------------|
D|-----------------------------------------------------|-----------------------------------------------------|
A|-----------------------------------------------------|-----------------------------------------------------|
E|-3---3---3---3---3----3----3---3----3---3----3---3---|-3---3---3---3---3----3----3---3----3---3----3---3---|

E|-----------------------------------------------------|--------------------------------------------------------|
B|-----------------------------------------------------|--------------------------------------------------------|
G|-----------------------------------------------------|--------------------------------------------------------|
D|-----------------------------------------------------|--------------------------------------------------------|
A|-----------------------------------------------------|--------------------------------------------------------|
E|-3---3---3---3---3----3----3---3----3---3----3---3---|-3---5----5---5----5---5---5---5---5---5---5----5---5---|

E|-----------------------------------------------------------|-----------------------------------------------------------|
B|-----------------------------------------------------------|-----------------------------------------------------------|
G|-----------------------------------------------------------|-----------------------------------------------------------|
D|-----------------------------------------------------------|-----------------------------------------------------------|
A|-----------------------------------------------------------|-----------------------------------------------------------|
E|-5---5---5---5---5----5---5---5---5---5---5---5----5---5---|-5---5---5---5---5----5---5---5---5---5---5---5----5---5---|

E|--------------------------------------------------------|-----------------------------------------------------|
B|--------------------------------------------------------|-----------------------------------------------------|
G|--------------------------------------------------------|-----------------------------------------------------|
D|--------------------------------------------------------|-----------------------------------------------------|
A|--------------------------------------------------------|---------------------------3----3---3---3----3-------|
E|-5---5---5---5---5----5---5---5---5---5---5---5----3----|-5----5---5---5----5---5-------------------------3---|

E|-----------------------------------------------------------|-----------------------------------------------------------|
B|-----------------------------------------------------------|-----------------------------------------------------------|
G|-----------------------------------------------------------|-----------------------------------------------------------|
D|-----------------------------------------------------------|-----------------------------------------------------------|
A|-----------------------------------------------------------|-----------------------------------------------------------|
E|-5---5---5---5---5----5---5---5---5---5---5---5----5---5---|-5---5---5---5---5----5---5---5---5---5---5---5----5---5---|

E|-----------------------------------------------------|-----------------------------------------------------|
B|-----------------------------------------------------|-----------------------------------------------------|
G|-----------------------------------------------------|-----------------------------------------------------|
D|-----------------------------------------------------|-----------------------------------------------------|
A|-----------------------------------------------------|-----------------------------------------------------|
E|-5----5---5---5----5---5---5---5---5---5---5----3----|-1---1----1---1----1---1---1---1---1---1---1----3----|

E|-----------------------------------------------------|--------------------------------------------------------|
B|-----------------------------------------------------|--------------------------------------------------------|
G|-----------------------------------------------------|--------------------------------------------------------|
D|-----------------------------------------------------|--------------------------------------------------------|
A|-----------------------------------------------------|--------------------------------------------------------|
E|-5----5---5---5----5---5---5---5---5---5---5----3----|-0---0---0---0---0----0---0---0---0---0---0---0----3----|

E|-----------------------------------------------------|-----------------------------------------------------|
B|-----------------------------------------------------|-----------------------------------------------------|
G|-----------------------------------------------------|-----------------------------------------------------|
D|-----------------------------------------------------|-----------------------------------------------------|
A|-----------------------------------------------------|-----------------------------------------------------|
E|-5-----5---5----5---5---5---5---5---5---5----3---4---|-5-----5---5----5---5---5---5---5---5---5----3---4---|

E|-----------------------------------------------------|-----------------------------------------------------|
B|-----------------------------------------------------|-----------------------------------------------------|
G|-----------------------------------------------------|-----------------------------------------------------|
D|-----------------------------------------------------|-----------------------------------------------------|
A|-----------------------------------------------------|-----------------------------------------------------|
E|-5-----5---5----5---5---5---5---5---5---5----3---4---|-5----5---5---5----5---5---5---5---5---5---5----3----|

E|--------------------------------------------|-----------------------------------------------|
B|--------------------------------------------|-----------------------------------------------|
G|--------------------------------------------|-----------------------------------------------|
D|--------------------------------------------|-----------------------------------------------|
A|-5-----5---5----5----5---5----5---5----3----|-----------------------------------------------|
E|--------------------------------------------|-6-----6---6----6---6---6---6----6---6----5----|

E|--------------------------------------------------|--------------------------------------------------|
B|--------------------------------------------------|--------------------------------------------------|
G|--------------------------------------------------|--------------------------------------------------|
D|--------------------------------------------------|--------------------------------------------------|
A|--------------------------------------------------|-3-----3---3----3---3---3---3----3---3---3---3----|
E|-3-----3---3----3---3---3---3----3---3----3---3---|--------------------------------------------------|

E|---------|---------|---------|---------|---------|---------|---------|---------|
B|---------|---------|---------|---------|---------|---------|---------|---------|
G|-%-------|-%-------|-%-------|-%-------|-%-------|-%-------|-%-------|-%-------|
D|-%-------|-%-------|-%-------|-%-------|-%-------|-%-------|-%-------|-%-------|
A|---------|---------|---------|---------|---------|---------|---------|---------|
E|---------|---------|---------|---------|---------|---------|---------|---------|
Pink Floyd - The Happiest Days in our Lives
Pink Floyd - The Happiest Days in our Lives.gp3