Pink Floyd - The Happiest Days of Our Lives

Pink Floyd



Title: The Happiest Days of Our Lives
Album: The Wall
Artist: Pink Floyd
Author: Roger Waters 

Track 1: Acoustic Guitar
E|-----------------------------------------------------|-----------------------------------------------------|
B|-----------------------------------------------------|-----------------------------------------------------|
G|-----------------------------------------------------|-----------------------------------------------------|
D|-----------------------------------------------------|-----------------------------------------------------|
A|-5----5---5---5----5---5---5----5---5---5----5---5---|-5----5---5---3----3---3-----------------------------|
E|-----------------------------------------------------|---------------------------6----6---6---5----5---3---|

E|-----------------------------------------------------|-----------------------------------------------------|
B|-----------------------------------------------------|-----------------------------------------------------|
G|-----------------------------------------------------|-----------------------------------------------------|
D|-----------------------------------------------------|-----------------------------------------------------|
A|-----------------------------------------------------|-----------------------------------------------------|
E|-3----3---3---3----3---3---3----3---3---3----3---3---|-5----5---5---5----5---5---5----5---5---5----5---5---|

E|-----------------------------------------------------|-----------------------------------------------------|
B|-----------------------------------------------------|-----------------------------------------------------|
G|-----------------------------------------------------|-----------------------------------------------------|
D|-----------------------------------------------------|-----------------------------------------------------|
A|-----------------------------------------------------|---------------------------3----3---3---3----3---3---|
E|-5----5---5---5----5---5---5----5---5---5----5---3---|-5----5---5---5----5---5-----------------------------|

E|-----------------------------------------------------|-----------------------------------------------------|
B|-----------------------------------------------------|-----------------------------------------------------|
G|-----------------------------------------------------|-----------------------------------------------------|
D|-----------------------------------------------------|-----------------------------------------------------|
A|-----------------------------------------------------|-----------------------------------------------------|
E|-5----5---5---5----5---5---5----5---5---5----5---5---|-1----1---1---1----1---1---1----1---1---1----1---3---|

E|-----------------------------------------------------|-----------------------------------------------------|
B|-----------------------------------------------------|-----------------------------------------------------|
G|-----------------------------------------------------|-----------------------------------------------------|
D|-----------------------------------------------------|-----------------------------------------------------|
A|-----------------------------------------------------|-----------------------------------------------------|
E|-5----5---5---5----5---5---5----5---5---5----5---3---|-0----0---0---0----0---0---0----0---0---0----0---3---|

E|-----------------------------------------------------|-----------------------------------------------------|
B|-----------------------------------------------------|-----------------------------------------------------|
G|-----------------------------------------------------|-----------------------------------------------------|
D|-----------------------------------------------------|-----------------------------------------------------|
A|-----------------------------------------------------|-----------------------------------------------------|
E|-5----5---5---5----5---5---5----5---5---5----3---4---|-5----5---5---5----5---5---5----5---5---5----5---5---|

E|-----------------------------------------------------|-----------------------------------------------------|
B|-----------------------------------------------------|-----------------------------------------------------|
G|-----------------------------------------------------|-----------------------------------------------------|
D|-----------------------------------------------------|-----------------------------------------------------|
A|-5----5---5---5----5---5---5----5---5---5----5---3---|-----------------------------------------------------|
E|-----------------------------------------------------|-6----6---6---6----6---6---6----6---6---6----6---5---|

E|-----------------------------------------------------|-----------------------------------------------------|
B|-----------------------------------------------------|-----------------------------------------------------|
G|-----------------------------------------------------|-----------------------------------------------------|
D|-----------------------------------------------------|-----------------------------------------------------|
A|-----------------------------------------------------|-3----3---3---3----3---3---3----3---3---3----3---3---|
E|-3----3---3---3----3---3---3----3---3---3----3---3---|-----------------------------------------------------|

E|---------|---------|---------|---------|
B|---------|---------|---------|---------|
G|---------|-3-------|-5-------|-5-------|
D|-3-------|-3-------|-5-------|-5-------|
A|-3-------|-1-------|-3-------|-3-------|
E|-1-------|---------|---------|---------|
Pink Floyd - The Happiest Days of Our Lives
Pink Floyd - The Happiest Days of Our Lives.gp3