Pink Floyd - The Happiest Days Of Our Lives - Another Brick In The Wall (Part 2)

Pink Floyd



Title: The Happiest Days Of Our Lives/Another Brick In The Wall (Part 2)-Mother
Album: The Wall
Artist: Pink Floyd
Author: 

Track 1: Rhythm Guitar
E|---------|---------|---------|---------|---------|-----------------------------------------------|
B|---------|---------|---------|---------|---------|-----------------------------------------------|
G|-%-------|-%-------|-%-------|-%-------|-%-------|-----------------------------------------------|
D|-%-------|-%-------|-%-------|-%-------|-%-------|-----------------------------------------------|
A|---------|---------|---------|---------|---------|-5-----5---5----5----5---5----5---5----5---5---|
E|---------|---------|---------|---------|---------|-----------------------------------------------|

E|-----------------------------------------------------|-----------------------------------------------|
B|-----------------------------------------------------|-----------------------------------------------|
G|-----------------------------------------------------|-----------------------------------------------|
D|-----------------------------------------------------|-----------------------------------------------|
A|-5-----5---5----5---5---5---5---5---5---5----5---5---|-5-----5---5----5----5---5----5---5----5---5---|
E|-----------------------------------------------------|-----------------------------------------------|

E|--------------------------------------------------|-----------------------------------------------------|
B|--------------------------------------------------|-----------------------------------------------------|
G|--------------------------------------------------|-----------------------------------------------------|
D|--------------------------------------------------|-----------------------------------------------------|
A|-5----5---5---3----3---3---2----2---2-------------|-----------------------------------------------------|
E|----------------------------------------5----3----|-3---3----3---3----3---3---3---3----3---3----3---3---|

E|-----------------------------------------------------|--------------------------------------------------------|
B|-----------------------------------------------------|--------------------------------------------------------|
G|-----------------------------------------------------|--------------------------------------------------------|
D|-----------------------------------------------------|--------------------------------------------------------|
A|-----------------------------------------------------|--------------------------------------------------------|
E|-3---3---3---3---3----3----3---3----3---3----3---3---|-3---3---3---3---3----3---3---3---3----3---3----3---3---|

E|-----------------------------------------------------|--------------------------------------------------------|
B|-----------------------------------------------------|--------------------------------------------------------|
G|-----------------------------------------------------|--------------------------------------------------------|
D|-----------------------------------------------------|--------------------------------------------------------|
A|-----------------------------------------------------|--------------------------------------------------------|
E|-3---3---3---3---3----3----3---3----3---3----3---3---|-3---5----5---5----5---5---5---5---5---5---5----5---5---|

E|--------------------------------------------------------|-----------------------------------------------------|
B|--------------------------------------------------------|-----------------------------------------------------|
G|--------------------------------------------------------|-----------------------------------------------------|
D|--------------------------------------------------------|-----------------------------------------------------|
A|--------------------------------------------------------|---------------------------3----3---3---3----3-------|
E|-5---5---5---5---5----5---5---5---5---5---5---5----3----|-5----5---5---5----5---5-------------------------3---|

E|-----------------------------------------------------------|-----------------------------------------------------|
B|-----------------------------------------------------------|-----------------------------------------------------|
G|-----------------------------------------------------------|-----------------------------------------------------|
D|-----------------------------------------------------------|-----------------------------------------------------|
A|-----------------------------------------------------------|---------------------------3----3---3---3----3-------|
E|-5---5---5---5---5----5---5---5---5---5---5---5----5---5---|-5----5---5---5----5---5-------------------------3---|

E|-----------------------------------------------------------|-----------------------------------------------------------|
B|-----------------------------------------------------------|-----------------------------------------------------------|
G|-----------------------------------------------------------|-----------------------------------------------------------|
D|-----------------------------------------------------------|-----------------------------------------------------------|
A|-----------------------------------------------------------|-----------------------------------------------------------|
E|-5---5---5---5---5----5---5---5---5---5---5---5----5---5---|-5---5---5---5---5----5---5---5---5---5---5---5----5---5---|

E|-----------------------------------------------------|-----------------------------------------------------|
B|-----------------------------------------------------|-----------------------------------------------------|
G|-----------------------------------------------------|-----------------------------------------------------|
D|-----------------------------------------------------|-----------------------------------------------------|
A|-----------------------------------------------------|-----------------------------------------------------|
E|-5----5---5---5----5---5---5---5---5---5---5----3----|-1---1----1---1----1---1---1---1---1---1---1----3----|

E|-----------------------------------------------------|--------------------------------------------------------|
B|-----------------------------------------------------|--------------------------------------------------------|
G|-----------------------------------------------------|--------------------------------------------------------|
D|-----------------------------------------------------|--------------------------------------------------------|
A|-----------------------------------------------------|--------------------------------------------------------|
E|-5----5---5---5----5---5---5---5---5---5---5----3----|-0---0---0---0---0----0---0---0---0---0---0---0----0----|

E|-----------------------------------------------------|-----------------------------------------------------|
B|-----------------------------------------------------|-----------------------------------------------------|
G|-----------------------------------------------------|-----------------------------------------------------|
D|-----------------------------------------------------|-----------------------------------------------------|
A|-----------------------------------------------------|-----------------------------------------------------|
E|-5-----5---5----5---5---5---5---5---5---5----3---4---|-5-----5---5----5---5---5---5---5---5---5----3---4---|

E|-----------------------------------------------------|--------------------------------------------------------|
B|-----------------------------------------------------|--------------------------------------------------------|
G|-----------------------------------------------------|--------------------------------------------------------|
D|-----------------------------------------------------|--------------------------------------------------------|
A|-----------------------------------------------------|--------------------------------------------------------|
E|-5-----5---5----5---5---5---5---5---5---5----3---4---|-5----5---5---5----5---5---5---5---5---5---5----5---5---|

E|--------------------------------------------|-----------------------------------------------|
B|--------------------------------------------|-----------------------------------------------|
G|--------------------------------------------|-----------------------------------------------|
D|--------------------------------------------|-----------------------------------------------|
A|-5-----5---5----5----5---5----5---5----3----|-----------------------------------------------|
E|--------------------------------------------|-6-----6---6----6---6---6---6----6---6----5----|

E|--------------------------------------------------|--------------------------------------------------|
B|--------------------------------------------------|--------------------------------------------------|
G|--------------------------------------------------|--------------------------------------------------|
D|--------------------------------------------------|--------------------------------------------------|
A|--------------------------------------------------|-3-----3---3----3---3---3---3----3---3---3---3----|
E|-3-----3---3----3---3---3---3----3---3----3---3---|--------------------------------------------------|

E|---------|---------|---------|---------|---------|---------|---------|---------|---------|
B|---------|---------|---------|---------|---------|---------|---------|---------|---------|
G|---------|-3-------|---------|-3-------|---------|---------|-5-------|-5-------|-%-------|
D|-3-------|-3-------|-3-------|-3-------|-3-------|-3-------|-5-------|-5-------|-%-------|
A|-3-------|-1-------|-3-------|-1-------|-3-------|-3-------|-3-------|-3-------|---------|
E|-1-------|---------|-1-------|---------|-1-------|-1-------|---------|---------|---------|

E|---------|---------|---------|---------|---------|---------|---------|---------|---------|
B|---------|---------|---------|---------|---------|---------|---------|---------|---------|
G|-%-------|-%-------|-%-------|-%-------|-%-------|-%-------|-%-------|-%-------|-%-------|
D|-%-------|-%-------|-%-------|-%-------|-%-------|-%-------|-%-------|-%-------|-%-------|
A|---------|---------|---------|---------|---------|---------|---------|---------|---------|
E|---------|---------|---------|---------|---------|---------|---------|---------|---------|

E|---------|---------|---------|---------|---------|---------|---------|---------|---------|
B|---------|---------|---------|---------|---------|---------|---------|---------|---------|
G|-%-------|-%-------|-%-------|-%-------|-%-------|-%-------|-%-------|-%-------|-%-------|
D|-%-------|-%-------|-%-------|-%-------|-%-------|-%-------|-%-------|-%-------|-%-------|
A|---------|---------|---------|---------|---------|---------|---------|---------|---------|
E|---------|---------|---------|---------|---------|---------|---------|---------|---------|

E|---------|---------|---------|---------|---------|---------|---------|---------|---------|
B|---------|---------|---------|---------|---------|---------|---------|---------|---------|
G|-%-------|-%-------|-%-------|-%-------|-%-------|-%-------|-%-------|-%-------|-%-------|
D|-%-------|-%-------|-%-------|-%-------|-%-------|-%-------|-%-------|-%-------|-%-------|
A|---------|---------|---------|---------|---------|---------|---------|---------|---------|
E|---------|---------|---------|---------|---------|---------|---------|---------|---------|

E|---------|---------|---------|---------|---------|---------|---------|---------|---------|
B|---------|---------|---------|---------|---------|---------|---------|---------|---------|
G|-%-------|-%-------|-%-------|-%-------|-%-------|-%-------|-%-------|-%-------|-%-------|
D|-%-------|-%-------|-%-------|-%-------|-%-------|-%-------|-%-------|-%-------|-%-------|
A|---------|---------|---------|---------|---------|---------|---------|---------|---------|
E|---------|---------|---------|---------|---------|---------|---------|---------|---------|

E|---------|---------|---------|---------|---------|---------|---------|---------|---------|
B|---------|---------|---------|---------|---------|---------|---------|---------|---------|
G|-%-------|-%-------|-%-------|-%-------|-%-------|-%-------|-%-------|-%-------|-%-------|
D|-%-------|-%-------|-%-------|-%-------|-%-------|-%-------|-%-------|-%-------|-%-------|
A|---------|---------|---------|---------|---------|---------|---------|---------|---------|
E|---------|---------|---------|---------|---------|---------|---------|---------|---------|

E|---------|---------|---------|---------|---------|---------|---------|---------|---------|
B|---------|---------|---------|---------|---------|---------|---------|---------|---------|
G|-%-------|-%-------|-%-------|-%-------|-%-------|-%-------|-%-------|-%-------|-%-------|
D|-%-------|-%-------|-%-------|-%-------|-%-------|-%-------|-%-------|-%-------|-%-------|
A|---------|---------|---------|---------|---------|---------|---------|---------|---------|
E|---------|---------|---------|---------|---------|---------|---------|---------|---------|

E|---------|---------|---------|---------|---------|---------|---------|---------|---------|
B|---------|---------|---------|---------|---------|---------|---------|---------|---------|
G|-%-------|-%-------|-%-------|-%-------|-%-------|-%-------|-%-------|-%-------|-%-------|
D|-%-------|-%-------|-%-------|-%-------|-%-------|-%-------|-%-------|-%-------|-%-------|
A|---------|---------|---------|---------|---------|---------|---------|---------|---------|
E|---------|---------|---------|---------|---------|---------|---------|---------|---------|

E|---------|---------|---------|---------|---------|---------|---------|---------|---------|
B|---------|---------|---------|---------|---------|---------|---------|---------|---------|
G|-%-------|-%-------|-%-------|-%-------|-%-------|-%-------|-%-------|-%-------|-%-------|
D|-%-------|-%-------|-%-------|-%-------|-%-------|-%-------|-%-------|-%-------|-%-------|
A|---------|---------|---------|---------|---------|---------|---------|---------|---------|
E|---------|---------|---------|---------|---------|---------|---------|---------|---------|

E|---------|---------|---------|---------|-------------|---------|---------|---------|
B|---------|---------|---------|---------|-------------|---------|---------|---------|
G|-%-------|-%-------|-%-------|-%-------|-%------%----|-%-------|-%-------|-%-------|
D|-%-------|-%-------|-%-------|-%-------|-%------%----|-%-------|-%-------|-%-------|
A|---------|---------|---------|---------|-------------|---------|---------|---------|
E|---------|---------|---------|---------|-------------|---------|---------|---------|

E|---------|-------------|---------|---------|---------|---------|---------|---------|
B|---------|-------------|---------|---------|---------|---------|---------|---------|
G|-%-------|-%------%----|-%-------|-%-------|-%-------|-%-------|-%-------|-%-------|
D|-%-------|-%------%----|-%-------|-%-------|-%-------|-%-------|-%-------|-%-------|
A|---------|-------------|---------|---------|---------|---------|---------|---------|
E|---------|-------------|---------|---------|---------|---------|---------|---------|

E|---------|---------|--------------|---------|---------|-------------|---------|---------|
B|---------|---------|--------------|---------|---------|-------------|---------|---------|
G|-%-------|-%-------|-%------%-----|-%-------|-%-------|-%------%----|-%-------|-%-------|
D|-%-------|-%-------|-%------%-----|-%-------|-%-------|-%------%----|-%-------|-%-------|
A|---------|---------|--------------|---------|---------|-------------|---------|---------|
E|---------|---------|--------------|---------|---------|-------------|---------|---------|

E|---------|---------|-------------|---------|---------|---------|---------|---------|
B|---------|---------|-------------|---------|---------|---------|---------|---------|
G|-%-------|-%-------|-%------%----|-%-------|-%-------|-%-------|-%-------|-%-------|
D|-%-------|-%-------|-%------%----|-%-------|-%-------|-%-------|-%-------|-%-------|
A|---------|---------|-------------|---------|---------|---------|---------|---------|
E|---------|---------|-------------|---------|---------|---------|---------|---------|

E|---------|---------|---------|--------------|---------|---------|---------|----------------|
B|---------|---------|---------|--------------|---------|---------|---------|----------------|
G|-%-------|-%-------|-%-------|-%------%-----|-%-------|-%-------|-%-------|-%-------%------|
D|-%-------|-%-------|-%-------|-%------%-----|-%-------|-%-------|-%-------|-%-------%------|
A|---------|---------|---------|--------------|---------|---------|---------|----------------|
E|---------|---------|---------|--------------|---------|---------|---------|----------------|

E|----------------|----------------|----------------|----------------|--------------|
B|----------------|----------------|----------------|----------------|--------------|
G|-%-------%------|-%-------%------|-%-------%------|-%-------%------|-%-------%----|
D|-%-------%------|-%-------%------|-%-------%------|-%-------%------|-%-------%----|
A|----------------|----------------|----------------|----------------|--------------|
E|----------------|----------------|----------------|----------------|--------------|

E|----------------|----------------|----------------|----------------|---------|---------|
B|----------------|----------------|----------------|----------------|---------|---------|
G|-%-------%------|-%-------%------|-%-------%------|-%-------%------|-%-------|-%-------|
D|-%-------%------|-%-------%------|-%-------%------|-%-------%------|-%-------|-%-------|
A|----------------|----------------|----------------|----------------|---------|---------|
E|----------------|----------------|----------------|----------------|---------|---------|

E|---------|---------|---------|---------|---------|---------|---------|-------------|
B|---------|---------|---------|---------|---------|---------|---------|-------------|
G|-%-------|-%-------|-%-------|-%-------|-%-------|-%-------|-%-------|-%------%----|
D|-%-------|-%-------|-%-------|-%-------|-%-------|-%-------|-%-------|-%------%----|
A|---------|---------|---------|---------|---------|---------|---------|-------------|
E|---------|---------|---------|---------|---------|---------|---------|-------------|

E|---------|---------|---------|---------|-------------|---------|---------|---------|
B|---------|---------|---------|---------|-------------|---------|---------|---------|
G|-%-------|-%-------|-%-------|-%-------|-%------%----|-%-------|-%-------|-%-------|
D|-%-------|-%-------|-%-------|-%-------|-%------%----|-%-------|-%-------|-%-------|
A|---------|---------|---------|---------|-------------|---------|---------|---------|
E|---------|---------|---------|---------|-------------|---------|---------|---------|

E|---------|---------|---------|---------|---------|--------------|---------|---------|
B|---------|---------|---------|---------|---------|--------------|---------|---------|
G|-%-------|-%-------|-%-------|-%-------|-%-------|-%------%-----|-%-------|-%-------|
D|-%-------|-%-------|-%-------|-%-------|-%-------|-%------%-----|-%-------|-%-------|
A|---------|---------|---------|---------|---------|--------------|---------|---------|
E|---------|---------|---------|---------|---------|--------------|---------|---------|

E|---------|----------------|----------------|----------------|----------------|----------------|
B|---------|----------------|----------------|----------------|----------------|----------------|
G|-%-------|-%-------%------|-%-------%------|-%-------%------|-%-------%------|-%-------%------|
D|-%-------|-%-------%------|-%-------%------|-%-------%------|-%-------%------|-%-------%------|
A|---------|----------------|----------------|----------------|----------------|----------------|
E|---------|----------------|----------------|----------------|----------------|----------------|

E|--------------|----------------|----------------|----------------|----------------|
B|--------------|----------------|----------------|----------------|----------------|
G|-%-------%----|-%-------%------|-%-------%------|-%-------%------|-%-------%------|
D|-%-------%----|-%-------%------|-%-------%------|-%-------%------|-%-------%------|
A|--------------|----------------|----------------|----------------|----------------|
E|--------------|----------------|----------------|----------------|----------------|

E|---------|---------|-------------|---------|---------|
B|---------|---------|-------------|---------|---------|
G|-%-------|-%-------|-%------%----|-%-------|-%-------|
D|-%-------|-%-------|-%------%----|-%-------|-%-------|
A|---------|---------|-------------|---------|---------|
E|---------|---------|-------------|---------|---------|
Pink Floyd - The Happiest Days Of Our Lives - Another Brick In The Wall (Part 2)
Pink Floyd - The Happiest Days Of Our Lives - Another Brick In The Wall (Part 2).gp3