Pink Floyd - The Thin Ice

Pink Floyd



Title: The Thin Ice
Album: The Wall 
Artist: Pink Floyd
Author: Roger Waters

Track 1: Acoustic Guitar
E|---------|-0------0------|-1------3------|-0------0------|-1------3------|-0-----3-----1-----0-----|
B|---------|-1------1------|-1------0------|-1------1------|-1------0------|-1-----0-----1-----1-----|
G|-%-------|-0------2------|-2------0------|-0------2------|-2------0------|-0-----0-----2-----0-----|
D|-%-------|-2------2------|-3------0------|-2------2------|-3------0------|-2-----0-----3-----2-----|
A|---------|-3------0------|-0------2------|-3------0------|-0------2------|-3-----2-----0-----------|
E|---------|---------------|-1------3------|---------------|-1------3------|-------3-----1-----3-----|

E|-0------0------|-0-----3-----1-----0-----|-0-----0-----2------|-0-----3-----1-----0-----|
B|-1------1------|-1-----0-----1-----1-----|-1-----1-----1------|-1-----0-----1-----1-----|
G|-2------2------|-0-----0-----2-----0-----|-2-----0-----2------|-0-----0-----2-----0-----|
D|-2------2------|-2-----0-----3-----2-----|-2-----2-----2------|-2-----0-----3-----2-----|
A|-0------0------|-3-----2-----0-----------|-0-----0-----0------|-3-----2-----0-----------|
E|---------------|-------3-----1-----3-----|--------------------|-------3-----1-----3-----|

E|-0-----2-----3------|-0------0------|-1------3------|-0------0------|-1------3------|
B|-1-----1-----0------|-1------1------|-1------0------|-1------1------|-1------0------|
G|-2-----2-----0------|-0------2------|-2------0------|-0------2------|-2------0------|
D|-2-----0-----0------|-2------2------|-3------0------|-2------2------|-3------0------|
A|-0-----------2------|-3------0------|-0------2------|-3------0------|-0------2------|
E|-------------3------|---------------|-1------3------|---------------|-1------3------|

E|---------|---------|---------|---------|---------|---------|---------|
B|---------|---------|---------|---------|---------|---------|---------|
G|-%-------|-%-------|-%-------|-%-------|-%-------|-%-------|-%-------|
D|-%-------|-%-------|-%-------|-%-------|-%-------|-%-------|-%-------|
A|---------|---------|---------|---------|---------|---------|---------|
E|---------|---------|---------|---------|---------|---------|---------|
Pink Floyd - The Thin Ice
Pink Floyd - The Thin Ice.gp3