Pink Floyd - The Wall

Pink Floyd



Title: The Wall
Album: 
Artist: Pink Floyd
Author: 

Track 1: Guitar 
E|---------------------------------|---------------------------------|---------|---------------|
B|---------------------------------|---------------------------------|---------|---------------|
G|-----------------%---------------|-----------------%---------------|---------|--------%------|
D|-----------------%---------------|-----------------%---------------|---------|--------%------|
A|-5-----7----7---------7----7-----|-5-----7----7---------7----7-----|-7-------|-7-------------|
E|---------------------------------|---------------------------------|---------|---------------|

E|---------------------------------|------------------------|---------|---------------|
B|---------------------------------|------------------------|---------|---------------|
G|-----------------%---------------|------------------------|---------|--------%------|
D|-----------------%---------------|------------------------|---------|--------%------|
A|-5-----7----7---------7----7-----|-5-----7----8----8------|-8-------|-8-------------|
E|---------------------------------|------------------------|---------|---------------|

E|---------------------------------|---------------------------------|---------|---------------|
B|---------------------------------|---------------------------------|---------|---------------|
G|-----------------%---------------|-----------------%---------------|---------|--------%------|
D|-----------------%---------------|-----------------%---------------|---------|--------%------|
A|-5-----7----7---------7----7-----|-5-----7----7---------7----7-----|-7-------|-7-------------|
E|---------------------------------|---------------------------------|---------|---------------|

E|---------------------------------|---------------------------------|---------|---------------------------|
B|---------------------------------|---------------------------------|---------|---------------------------|
G|-----------------%---------------|---------------------------------|---------|---------------------------|
D|-----------------%---------------|---------------------------------|-5-------|-5------5-----5----12--12--|
A|-5-----7----7---------7----7-----|-5-----7----8----8-----8----5----|---------|-------------------10--10--|
E|---------------------------------|---------------------------------|---------|---------------------------|

E|---------------------------|---------|-----------------------------------------------------------------|
B|---------------------------|---------|-----------------------------------------------------------------|
G|---------------------------|---------|-----------------------------------------------------------------|
D|-12--12--12---12----12-----|-12------|-----------------------------------------------------------------|
A|-10--10--10---10----10-----|-10------|-5---5---5---5---5---5---5---5---5---5---5---5---5---3---3---3---|
E|---------------------------|---------|-----------------------------------------------------------------|

E|-----------------------------------------------------------------|---------|---------|
B|-----------------------------------------------------------------|---------|---------|
G|-----------------------------------------------------------------|---------|-5-------|
D|-----------------------------------------------------------------|-3-------|-5-------|
A|-5---5---5---5---5---5---3---3---3---3---------------------------|-3-------|-3-------|
E|-----------------------------------------3---3---3---3---1---1---|-1-------|---------|

E|---------|---------|---------|---------|---------|---------|-5-------|--------------------------------10---|
B|---------|---------|---------|---------|---------|---------|-6-------|--------13--10------10------10-------|
G|-7-------|-7-------|---------|-5-------|-7-------|-7-------|-7-------|-%--------------12------12-----------|
D|-7-------|-7-------|-3-------|-5-------|-7-------|-7-------|---------|-%-----------------------------------|
A|-5-------|-5-------|-3-------|-3-------|-5-------|-5-------|---------|-------------------------------------|
E|---------|---------|-1-------|---------|---------|---------|---------|-------------------------------------|

E|--------------------|-10--10------10-------------------|--------------------------------|
B|-13-----13----------|-10--10------10---------13---13---|-13----13----13----13--10-------|
G|--------------%-----|---------%-------%----------------|---------------------------12---|
D|--------------%-----|---------%-------%----------------|--------------------------------|
A|--------------------|----------------------------------|--------------------------------|
E|--------------------|----------------------------------|--------------------------------|

E|-------------------------------------|----------------------------------------|-----------------------------------------|
B|-------------------------------------|----------------------------------------|-----------------------------------------|
G|-12-----10--9-------9-----------12---|-----------10---%----%-----10-----------|-10-------------10---10--------10---12---|
D|----------------12------10--12-------|-12---12--------%----%---------12--12---|------12---12-------------12-------------|
A|-------------------------------------|----------------------------------------|-----------------------------------------|
E|-------------------------------------|----------------------------------------|-----------------------------------------|

E|--------------------|--------------13----|-13---12---10---13---12---10---13---12---10---13---12---10---|
B|--------------------|--------------------|-------------------------------------------------------------|
G|-10----%-----%------|-%------%-----------|-------------------------------------------------------------|
D|-------%-----%------|-%------%-----------|-------------------------------------------------------------|
A|--------------------|--------------------|-------------------------------------------------------------|
E|--------------------|--------------------|-------------------------------------------------------------|

E|---------|---------|---------|----------10--------------------------------------|
B|-13------|-13------|---------|------10------13--10------------------------------|
G|---------|---------|-%-------|-12-------------------12---12---10---12--10-------|
D|---------|---------|-%-------|---------------------------------------------12---|
A|---------|---------|---------|--------------------------------------------------|
E|---------|---------|---------|--------------------------------------------------|

E|--------------------------------------------------------|--------------------------------|
B|--------------------------------------------------------|--------------------------------|
G|-10--------12-------------------------------------------|--------------------------------|
D|------12-------10---------------------------------------|--------------------------------|
A|-------------------12--10--12--10--8----10--8-----------|-----------8--------------------|
E|------------------------------------------------10--8---|-10----10------10---8-----10----|

E|-----------------------------------------------|----------------------------|---------|
B|-----------------5---6---5---------------------|----------------6----6------|-13------|
G|-------5----7----------------7----7---5--------|-5----7----7----------------|---------|
D|-7----------------------------------------7----|----------------------------|---------|
A|-----------------------------------------------|----------------------------|---------|
E|-----------------------------------------------|----------------------------|---------|

E|---------|--------------15----|-15-----15---13--------------|-------13---12---15----15----|
B|-13------|-13-----13----------|------------------15---------|-15--------------------------|
G|---------|--------------------|-----------------------%-----|-----------------------------|
D|---------|--------------------|-----------------------%-----|-----------------------------|
A|---------|--------------------|-----------------------------|-----------------------------|
E|---------|--------------------|-----------------------------|-----------------------------|

E|-15------|-18------|-20-----20----20--17--20--17--|-20--17--20--17--------------------|
B|---------|---------|------------------------------|-----------------------------------|
G|---------|---------|------------------------------|-----------------%-----10----10----|
D|---------|---------|------------------------------|-----------------%-----------------|
A|---------|---------|------------------------------|-----------------------------------|
E|---------|---------|------------------------------|-----------------------------------|

E|--------------------|----------------------------------------|---------------------------------|
B|--------------------|----------------------------------------|---------------------------------|
G|-10-----------------|-------------------10---12---10---10----|-10---9----%----------10---10----|
D|-------12-----10----|-12--14--14---12------------------------|-----------%-----12--------------|
A|--------------------|----------------------------------------|---------------------------------|
E|--------------------|----------------------------------------|---------------------------------|

E|--------------------|---------|---------|
B|--------------------|---------|---------|
G|--------------------|---------|---------|
D|-12-----------------|---------|---------|
A|-------10----8------|---------|---------|
E|--------------------|-10------|-10------|
Pink Floyd - The Wall
Pink Floyd - The Wall.gp3