Pink Floyd - Time (3)

Pink Floyd - Time (3)

Pink Floyd



Title: Time 
Album: Dark Side of The Moon
Artist: Pink Floyd
Author: 

Track 1: Guitar 1
E|---------|---------|---------|---------|---------|---------|---------|---------|---------|
B|---------|---------|---------|---------|---------|---------|---------|---------|---------|
G|-%-------|---------|---------|---------|---------|---------|---------|---------|---------|
D|-%-------|---------|---------|---------|---------|---------|---------|---------|---------|
A|---------|---------|---------|---------|---------|---------|---------|---------|---------|
E|---------|-0-------|-0-------|-2-------|-2-------|-0-------|-0-------|-2-------|-2-------|

E|---------|---------|-------------------|---------|---------|-------------------|----------------------|
B|---------|---------|-------------------|---------|---------|-------------------|----------------------|
G|---------|---------|-------------------|---------|---------|-------------------|----------------------|
D|---------|---------|-------------------|---------|---------|-------------------|-----------------2----|
A|---------|---------|-------------------|---------|---------|-------------------|---------2---4--------|
E|-0-------|-0-------|-0-------0---1-----|-2-------|-2-------|-2-------0---1-----|-2--------------------|

E|---------|---------|---------|---------|--------------------|---------------|-------------------|
B|---------|---------|---------|---------|--------------------|---------------|-------------------|
G|---------|---------|---------|---------|--------------------|---------------|-------------------|
D|---------|---------|---------|---------|--------------------|---------------|-------------------|
A|---------|---------|---------|-0-------|--------------------|---------------|-------------------|
E|-2-------|-2-------|-2-------|---------|-12-----2-----2-----|-0------0------|-12------0----1----|

E|---------|---------------|-------2------------------------|----------------------------------------------------|
B|---------|---------------|-------2-----------2---2--------|-------X---X---X---3-------2---X---X---X---2--------|
G|---------|---------------|-------------------2---2---%----|-------X---X---X---2---%---2---X---X---X---2---%----|
D|---------|---------------|---------------------------%----|-2-----X---X---X-------%-----------------------%----|
A|---------|---------------|--------------------------------|----------------------------------------------------|
E|-2-------|-2-----2-------|-2-----------2------------------|----------------------------------------------------|

E|------------------------------------------|--------------------------------------------------------------------|
B|------------------------------------------|-----------------------------2---2----2--2--------------------------|
G|-------1---1---%----%-----1---1---%-------|---------%-----------%-------4---4----4--4--2--2--%--2----------%---|
D|-------2---2---%----%-----2---2---%-------|---------%-------4---%---X------------------------%-----2---2---%---|
A|------------------------------------------|-----------------4-------X------------------------------------------|
E|-0------------------------------------0---|-0---2-------2------------------------------------------------------|

E|----------------------------------------------|----------5---5-------7---X---7---9---9---9-------7-----|
B|---------------------------------2---2--------|-2----6---------------X---X---X-------X---X-------X-----|
G|---------%----4-------------%----2---2---%----|-2----------------X---7---X---7---9---9---9---%---7-----|
D|---------%------------------%------------%----|-0--------------------------------------------%---------|
A|----------------------------------------------|--------------------------------------------------------|
E|-0---2--------------2---2---------------------|--------------------------------------------------------|

E|------------------0----------------------------------------|-----------------------------------------------------------------|
B|------------------0----------------------------------------|-----------------------------------------------------------------|
G|------%-------1---1---%----%-------%-------1---1---%-------|---------%-------2---X---X---X-------------------2---2---X---X---|
D|------%---2---2-------%----%-------%---2---2---2---%-------|---------%-------2---X---X---X-------------------2---2---X---X---|
A|----------2--------------------0-------2-------------------|-----------------------------------------------------------------|
E|-0-----------------------------------------------------X---|-0---2-------2-------------------X---2---X---X-------------------|

E|---------|---------|----------------------|----------------------|---------|---------|
B|-3-------|---------|-3-----------3--------|-------------2--------|---------|-5-------|
G|-2-------|-2-------|-2-------%---2---%----|-2-------%---2---%----|-2-------|-6-------|
D|-0-------|-2-------|-0-------%-------%----|-2-------%---2---%----|-0-------|-6-------|
A|---------|-0-------|----------------------|-0--------------------|---------|-4-------|
E|---------|---------|----------------------|----------------------|---------|---------|

E|----------------------|---------------------------|---------------------------|---------------------------------|
B|-3--------------------|---------------------------|---------------------------|---------------------------------|
G|-4-------%------------|-----%------X-----X----X---|------------------4--------|-4------4----4----4----4---4--2--|
D|-4-------%------------|-----%------X-----X----X---|-2------4-----4--------4---|---------------------------------|
A|-2--------------------|------------X-----X----X---|---------------------------|---------------------------------|
E|--------------2---2---|-0-------------------------|---------------------------|---------------------------------|

E|-------------------------------------------|---------------------------------5---------|
B|-------------------------------------------|------------5---5----7--5--7--5-------7----|
G|-4---4---2---4----4-----4------------------|--------6----------------------------------|
D|------------------------------4---4---4----|-4-----------------------------------------|
A|-------------------------------------------|-------------------------------------------|
E|-------------------------------------------|-------------------------------------------|

E|--------------------------------------------|-----------------------9---9---9-------9---9----9----|
B|-7------------------------------------------|-----------------------X---X-------------------------|
G|-------------4---4----4----4----4---4---2---|-4---4-----4---4---9---9---9---9---%-----------------|
D|-4-----4------------------------------------|-----------------------------------%-----------------|
A|--------------------------------------------|-----------------------------------------------------|
E|--------------------------------------------|-----------------------------------------------------|

E|-------------------------------------------------|-------------------------|---------------------------17---------------------|
B|-10----10--10--10--9---9-----9---9---9-----------|-------------------------|-----------14---17----17-------17--17---17--17-19-|
G|-----------------------------------------9---9---|-9------9------9----9----|------14------------------------------------------|
D|-------------------------------------------------|-------------------------|-16-----------------------------------------------|
A|-------------------------------------------------|-------------------------|--------------------------------------------------|
E|-------------------------------------------------|-------------------------|--------------------------------------------------|

E|----------------------------------------------|----------------------------------------------|
B|-17---17--------------------------------------|------------------------17---17---------------|
G|----------16--16----16---16-16---16--16---16--|-16---16--16--16----16-----------16--16--14---|
D|----------------------------------------------|----------------------------------------------|
A|----------------------------------------------|----------------------------------------------|
E|----------------------------------------------|----------------------------------------------|

E|----------------17--17----17---17---|--------17--------------------------|----------------------19--19---19--19--|
B|------------14----------------------|-17---------17----------------------|---------------------------------------|
G|------------------------------------|------------------16-16--14-16--14--|-16----16------------------------------|
D|-16----16---------------------------|------------------------------------|-------------16---X--------------------|
A|------------------------------------|------------------------------------|---------------------------------------|
E|------------------------------------|------------------------------------|---------------------------------------|

E|-19---19--19--19----19---16-----------------------|------------------------------------------|
B|------------------------------17--------17---19---|-19----19---17-19-17--17--14----14---14---|
G|-----------------------------------16-------------|------------------------------------------|
D|--------------------------------------------------|------------------------------------------|
A|--------------------------------------------------|------------------------------------------|
E|--------------------------------------------------|------------------------------------------|

E|----------------------------------------------------|----------------------------------|
B|----------------7----10---12---10----10---9----10---|-9----5------5-----5----7----9----|
G|------2----7----------------------------------------|----------------------------------|
D|-4--------------------------------------------------|----------------------------------|
A|----------------------------------------------------|----------------------------------|
E|----------------------------------------------------|----------------------------------|

E|-----------------------------------------|--------------------|----------------------------|
B|-9-----9----7---5---7-----5----2----5----|-2------------------|----------------------------|
G|-----------------------------------------|--------4-----4-----|-4------4-----4---4----2----|
D|-----------------------------------------|--------------------|----------------------------|
A|-----------------------------------------|--------------------|----------------------------|
E|-----------------------------------------|--------------------|----------------------------|

E|----------------------|--------------------------------|---------------|--------------------------------|
B|----------------------|--------------------------------|---------------|-------2-----------2---2--------|
G|-4-------4---4---2----|-4-----2---------4--------------|---------------|-------2-----------2---2---%----|
D|----------------------|-------------6-------6----4-----|-2-------------|---------------------------%----|
A|----------------------|--------------------------------|---------------|--------------------------------|
E|----------------------|--------------------------------|--------0------|-2-----------2------------------|

E|-------------------------------------------------------|-------------------------------------------|
B|-------2-----------7-------5-------3-------2-----------|-------------------------------------------|
G|-------2---%-----------%---X---%---X---%---X---%-------|-1-----1---1---%----%----%-----------------|
D|-------2---%---7-------%---5---%---4---%---2---%-------|-2-----2---2---%----%----%---2---2-----2---|
A|-0-----------------------------------------------------|-2-----2---2-------------------------------|
E|---------------------------------------------------0---|-------------------------------------------|

E|-------------------------------------------------------------|---------------------------------------|
B|-----------------2-------X-----------------------------------|-------2------------------2---2--------|
G|---------%-------2---%---X---4---4----4--4--2---2------------|-------2-------------%----2---2---%----|
D|---------%-----------%-----------------------------2----2----|---------------------%------------%----|
A|-------------------------------------------------------------|---------------------------------------|
E|-0---2-------2-----------------------------------------------|-2-----------2---2---------------------|

E|-------------------2---5---X---7---7-------5-----|---------------------------------|
B|----------2--------2---5---X---5---5-------5-----|---------------------------------|
G|----------2----6---------------7---7---%---6-----|-------1-----%---------1---------|
D|---------------------------------------%---------|-------2-----%----2----2----2----|
A|-0----2------------------------------------------|------------------2---------2----|
E|-------------------------------------------------|-0--------------------------0----|

E|-----------------------------------------------------|---------|---------|---------|
B|-----------------------------------------------------|-3-------|-2-------|-3-------|
G|-----------2----------------------------2---2---%----|-2-------|-2-------|-2-------|
D|-----------4----4---4-------------------4---2---%----|-0-------|-2-------|-0-------|
A|-----------------------------------------------------|---------|-0-------|---------|
E|-2-----2----------------0---2---X---X----------------|---------|---------|---------|

E|----------------------|----------------------|---------------|---------|--------1------|
B|-2-----------2--------|---------3---3--------|---------------|---------|-3------1------|
G|-2-------%---2---%----|-2-------2---2---%----|--------%------|---------|-4------2------|
D|-2-------%-------%----|-0---------------%----|--------%------|-4-------|-4------3------|
A|-0--------------------|----------------------|-4-------------|-2-------|-2-------------|
E|----------------------|----------------------|---------------|---------|---------------|

E|-0-------|
B|-0-------|
G|-0-------|
D|-2-------|
A|-2-------|
E|-0-------|
Pink Floyd - Time (3)
Pink Floyd - Time (3).gp3