Pink Floyd - Time (5)

Pink Floyd



Title: Time
Album: The Dark Side Of The Moon
Artist: Pink Floyd
Author: 

Track 1: Clean Guitar
E|---------|---------|---------|---------|---------|---------|---------|---------|---------|
B|---------|---------|---------|---------|---------|---------|---------|---------|---------|
G|---------|---------|---------|---------|---------|---------|---------|---------|---------|
D|---------|---------|---------|---------|---------|---------|---------|---------|---------|
A|---------|---------|---------|---------|---------|---------|---------|---------|---------|
E|-0-------|-0-------|-2-------|-2-------|-0-------|-0-------|-2-------|-2-------|-0-------|

E|----------------------|---------|---------|---------|----------------------|----------------------|
B|----------------------|---------|---------|---------|----------------------|----------------------|
G|-----------------%----|---------|---------|---------|-----------------%----|----------------------|
D|-----------------%----|---------|---------|---------|-----------------%----|-----------------2----|
A|----------------------|---------|---------|---------|----------------------|---------2---4--------|
E|-0-------0---1--------|-2-------|-2-------|-0-------|-0-------0---1--------|-2--------------------|

E|---------|---------|---------|---------|-12------12-----------|--------12-----|-12-------------------|
B|---------|---------|---------|---------|----------------------|---------------|----------------------|
G|---------|---------|---------|---------|----------------------|---------------|-----------------%----|
D|---------|---------|---------|---------|----------------------|---------------|-----------------%----|
A|---------|---------|---------|-0-------|----------------------|---------------|----------------------|
E|-2-------|-2-------|-2-------|---------|--------------2---2---|-0-------------|---------0---1--------|

E|---------|---------------|--------------------------------|----------------------------------------------------|
B|---------|---------------|-------2-----------2---2--------|-------X---X---X---3-------2---X---X---X---2--------|
G|---------|-------%-------|-------2-----------2---2---%----|-------X---X---X---2---%---2---X---X---X---2---%----|
D|---------|-------%-------|---------------------------%----|-2-----X---X---X-------%-------X---X---X-------%----|
A|---------|---------------|--------------------------------|----------------------------------------------------|
E|-2-------|-2-------------|-2-----------2------------------|----------------------------------------------------|

E|------------------------------------------|---------------------------------------------------------------|
B|------------------------------------------|-----------------------------2---2----2------------------------|
G|-------1---1---%----%-----1---1---%-------|---------%-----------%-------4--------4--4--2--%--2------------|
D|-------2---2---%----%-----2---2---%-------|---------%-------4---%---X---------------------%-----2----2----|
A|------------------------------------------|-----------------4-------X-------------------------------------|
E|-0------------------------------------0---|-0---2-------2-------------------------------------------------|

E|----------------------------------------------|----------5---5-------7---X---7---9---9---9-------7-----|
B|---------------------------------2---2--------|----------------------X---X---X-------X---X-------X-----|
G|---------%------------------%----2---2---%----|-2----6-----------X---7---X---7---9---9---9---%---7-----|
D|---------%----4-------------%------------%----|-2--------------------------------------------%---------|
A|----------------------------------------------|-0------------------------------------------------------|
E|-0---2--------------2---2---------------------|--------------------------------------------------------|

E|------------------0----------------------------------------|-----------------------------------------------------------------|
B|------------------0----------------------------------------|-----------------2---X---X---X-------------------2---2---X---X---|
G|------%-------1---1---%----%-------%-------1---1---%-------|---------%-------2---X---X---X-------------------2---2---X---X---|
D|------%---2---2-------%----%-------%---2---2---2---%-------|---------%-------------------------------------------------------|
A|----------2----------------------------2-------------------|-----------------------------------------------------------------|
E|-0-----------------------------0-----------------------X---|-0---2-------2-------------------X---2---X---X-------------------|

E|---------|---------|----------------------|----------------------|---------|---------|
B|-3-------|---------|-3-----------3--------|-------------2--------|---------|-5-------|
G|-2-------|-2-------|-2-------%---2---%----|-2-------%---2---%----|-2-------|-6-------|
D|-0-------|-2-------|-0-------%-------%----|-2-------%---2---%----|-0-------|-6-------|
A|---------|-0-------|----------------------|-0--------------------|---------|-4-------|
E|---------|---------|----------------------|----------------------|---------|---------|

E|----------------------|---------|-----------------------------------------------|
B|-3--------------------|---------|-----------2----------------------2---2--------|
G|-4-------%------------|---------|------%----2----%------------%----2---2---%----|
D|-4-------%------------|---------|------%---------%------------%------------%----|
A|-2--------------------|---------|-----------------------------------------------|
E|--------------2---2---|-0-------|-2-------------------2---2---------------------|

E|------------------------------------------------|-------------------------------------------------|
B|-----------2--------2----2----------------------|-------------------------------------------------|
G|-------%---2---%----4----4----4--4--2--%---2----|-------1---1---%----%-------%-------1---1---%----|
D|-2-----%---2---%-----------------------%--------|-------2---2---%----%-------%-------2---2---%----|
A|------------------------------------------------|-------------------------------------------------|
E|------------------------------------------------|-0----------------------0-------0----------------|

E|-------------------------------------------------------------|---------------------------------------|
B|-----------------2-------------------------------------------|--------------------------2---2--------|
G|---------%-------2---%---4----4----4--4--2--%---2------------|---------------------%----2---2---%----|
D|---------%-----------%----------------------%------2----2----|-------4-------------%------------%----|
A|-------------------------------------------------------------|---------------------------------------|
E|-0---2-------2-----------------------------------------------|-2-----------0---2---------------------|

E|----------------------------------------------------------|---------------------------------------------------|
B|------------------------------14--14--------15------14----|---------------------------------------------------|
G|-2--------2---%---2---X-------14--14--------14--%---14----|-------1---1---%----%--------------%-------%-------|
D|-2--------2---%---2---X---14--14--14--14-16-16--%---14----|-------2---2---%----%--------------%-------%-------|
A|-0----0---0-------0---X-----------------------------------|---------------------------------------------------|
E|----------------------------------------------------------|-0-----------------------2--2--2-------0-------1---|

E|----------------------------------------------|---------------------------------------|
B|-------2---2---------------------2---2--------|-------2------------------2---2--------|
G|-------2---2---%------------%----2---2---%----|-------2-------------%----2---2---%----|
D|---------------%------------%------------%----|---------------------%------------%----|
A|----------------------------------------------|---------------------------------------|
E|-2------------------0---2---------------------|-2-----------0---2---------------------|

E|--------------------------------------------------------------|---------------0---------------------------0---------------|
B|--------------2---X---X---X---X-----------3-------2-----------|---------------0-------------------------------0-----------|
G|-2----2-------2---X---X---X---X-----------2---%---2---%-------|-----------1-------%-------%-------%-----------1---%-------|
D|-2----2-------2---X---X---X---X---2---2---2---%---2---%-------|-----------2-------%-------%-------%---------------%-------|
A|-0----0---0---------------------------------------------------|-----------------------2-----------------------------------|
E|----------------------------------------------------------0---|-0-----0-----------------------0-------0---------------0---|

E|-----------------------------------------------------------------|------------------------------------------|
B|-----------------2---2---------------------------2---2-------2---|-------2------------------2---2-------0---|
G|---------%-------2---2---%---------------%-------2---2---%---2---|-------2-------------%----2---2---%---0---|
D|---------%---------------%---------------%---------------%-------|---------------------%------------%-------|
A|-----------------------------------------------------------------|------------------------------------------|
E|-0---2-------2---------------0---0---2-------2-------------------|-2-----------0---2------------------------|

E|-----------------------------------------------|-----------0-------------------------------------|
B|--------------3-------2-----------2---3---2----|-----------0-------------------------------------|
G|-2------------2---%---2---%-------2-------2----|-------1-------%----%------------%-------%-------|
D|-2------2--4------%---2---%---2-----------2----|-------2-------%----%------------%-------%-------|
A|-0---------------------------------------------|-------------------------------------------------|
E|-----------------------------------------------|-0-----------------------2---2-------0-------0---|

E|--------------------------------------------------------|---------|---------|---------|
B|--------------2---2------------------------2---2--------|-3-------|-2-------|-3-------|
G|---------%----2---2---%---------------%----2---2---%----|-2-------|-2-------|-2-------|
D|---------%------------%---------------%------------%----|-0-------|-2-------|-0-------|
A|--------------------------------------------------------|---------|-0-------|---------|
E|-0---2--------------------0---0---2---------------------|---------|---------|---------|

E|---------|---------|---------|---------|---------|--------------------------------|
B|-2-------|-3-------|---------|---------|---------|-------2-----------2---2--------|
G|-2-------|-2-------|-6-------|-4-------|---------|-------2-----------2---2---%----|
D|-2-------|-0-------|-6-------|-4-------|-2-------|---------------------------%----|
A|-0-------|-0-------|-4-------|-2-------|-2-------|--------------------------------|
E|---------|---------|-4-------|-2-------|-0-------|-2-----------2------------------|

E|-------------------------------------------------------|-------------------------------------------|
B|-------2-----------7-------5-------3-------2-----------|-------------------------------------------|
G|-------2---%-----------%---X---%---X---%---X---%-------|-1-----1---1---%----%----%-----------------|
D|-------2---%---7-------%---5---%---4---%---2---%-------|-2-----2---2---%----%----%---2---2-----2---|
A|-0-----------------------------------------------------|-2-----2---2-------------------------------|
E|---------------------------------------------------0---|-------------------------------------------|

E|-------------------------------------------------------------|---------------------------------------------|
B|-----------------2-------X-----------------------------------|-------2---------------------2---2-----------|
G|---------%-------2---%---X---4---4----4--4--2---2------------|-------2-------------%---%---2---2---%---%---|
D|---------%-----------%-----------------------------2----2----|---------------------%---%-----------%---%---|
A|-------------------------------------------------------------|---------------------------------------------|
E|-0---2-------2-----------------------------------------------|-2-----------2---2---------------------------|

E|--------------------5---5---X---7---7-------5-----|---------------------------------|
B|-----------2--------5---5---X---5---5-------5-----|---------------------------------|
G|-----------2----6---------------7---7---%---6-----|-------1-----%---------1---------|
D|-------2--------------------------------%---------|-------2-----%----2----2----2----|
A|-0------------------------------------------------|------------------2---------2----|
E|--------------------------------------------------|-0--------------------------0----|

E|-----------------------------------------------------|---------|---------|---------|
B|--------------------------------------------2--------|-3-------|-2-------|-3-------|
G|-----------2----------------------------2---2---%----|-2-------|-2-------|-2-------|
D|-----------4----4---4-------------------4-------%----|-0-------|-2-------|-0-------|
A|-----------------------------------------------------|---------|-0-------|---------|
E|-2-----2----------------0---2---X---X----------------|---------|---------|---------|

E|----------------------|----------------------|---------------|---------|--------1------|
B|-2-----------2--------|---------3---3--------|---------------|---------|-3------1------|
G|-2-------%---2---%----|-2-------2---2---%----|--------%------|---------|-4------2------|
D|-2-------%-------%----|-0---------------%----|--------%------|-4-------|-4------3------|
A|-0--------------------|----------------------|-4-------------|-2-------|-2-------------|
E|----------------------|----------------------|---------------|---------|---------------|

E|-0-------|
B|-0-------|
G|-0-------|
D|-2-------|
A|-2-------|
E|-0-------|
Pink Floyd - Time (5)
Pink Floyd - Time (5).gp3