Pink Floyd - Time - Breathe(reprise) - The Great Gig In The Sky

Pink Floyd



Title: Time - Breathe(Reprise) - The Great Gig In The Sky
Album: The Dark Side Of The Moon
Artist: Pink Floyd
Author: Waters, Gilmour, Wright, Mason

Track 1: Guitar 1 (David) / Clocks C
E|-13-13-13-13-13-13-13-13-13-13-13-13-13-13-13-13-13-13-13-13-13-13-13-13-13-13-13-13-13-13-13-13-13-13-13-13-13-13-13-13-13-13-13-13-13-13-13-13-|
B|-------------------------------------------------------------------------------------------------------------------------------------------------|
G|-10-10-10-10-10-10-10-10-10-10-10-10-10-10-10-10-10-10-10-10-10-10-10-10-10-10-10-10-10-10-10-10-10-10-10-10-10-10-10-10-10-10-10-10-10-10-10-10-|
D|-------------------------------------------------------------------------------------------------------------------------------------------------|
A|-------------------------------------------------------------------------------------------------------------------------------------------------|
E|-------------------------------------------------------------------------------------------------------------------------------------------------|

E|-13-13-13-13-13-13-13-13-13-13-13-13-13-13-13-13-13-13-13-13-13-13-13-13-------------------------------------------------------------------------|
B|-17-17-17-17-17-17-17-17-17-17-17-17-17-17-17-17-17-17-17-17-17-17-17-17-17-17-17-17-17-17-17-17-17-17-17-17-17-17-17-17-17-17-17-17-17-17-17-17-|
G|-10-10-10-10-10-10-10-10-10-10-10-10-10-10-10-10-10-10-10-10-10-10-10-10-------------------------------------------------------------------------|
D|-14-14-14-14-14-14-14-14-14-14-14-14-14-14-14-14-14-14-14-14-14-14-14-14-14-14-14-14-14-14-14-14-14-14-14-14-14-14-14-14-14-14-14-14-14-14-14-14-|
A|-------------------------------------------------------------------------------------------------------------------------------------------------|
E|-------------------------------------------------------------------------------------------------------------------------------------------------|

E|-------------------------------------------------------------------------13-13-13-13-13-13-13-13-13-13-13-13-13-13-13-13-13-13-13-13-13-13-13-13-|
B|-17-17-17-17-17-17-17-17-17-17-17-17-17-17-17-17-17-17-17-17-17-17-17-17-17-17-17-17-17-17-17-17-17-17-17-17-17-17-17-17-17-17-17-17-17-17-17-17-|
G|-------------------------------------------------------------------------10-10-10-10-10-10-10-10-10-10-10-10-10-10-10-10-10-10-10-10-10-10-10-10-|
D|-14-14-14-14-14-14-14-14-14-14-14-14-14-14-14-14-14-14-14-14-14-14-14-14-14-14-14-14-14-14-14-14-14-14-14-14-14-14-14-14-14-14-14-14-14-14-14-14-|
A|-------------------------------------------------------------------------------------------------------------------------------------------------|
E|-------------------------------------------------------------------------------------------------------------------------------------------------|

E|-13-13-13-13-13-13-13-13-13-13-13-13-13-13-13-13-13-13-13-13-13-13-13-13-13-13-13-13-13-13-13-13-13-13-13-13-13-13-13-13-13-13-13-13-13-13-13-13-|
B|-------------------------------------------------------------------------------------------------------------------------------------------------|
G|-10-10-10-10-10-10-10-10-10-10-10-10-10-10-10-10-10-10-10-10-10-10-10-10-10-10-10-10-10-10-10-10-10-10-10-10-10-10-10-10-10-10-10-10-10-10-10-10-|
D|-------------------------------------------------------------------------------------------------------------------------------------------------|
A|-------------------------------------------------------------------------------------------------------------------------------------------------|
E|-------------------------------------------------------------------------------------------------------------------------------------------------|

E|-13-13-13-13-13-13-13-13-13-13-13-13-13-13-13-13-13-13-13-13-13-13-13-13-------------------------------------------------------------------------|
B|-17-17-17-17-17-17-17-17-17-17-17-17-17-17-17-17-17-17-17-17-17-17-17-17-17-17-17-17-17-17-17-17-17-17-17-17-17-17-17-17-17-17-17-17-17-17-17-17-|
G|-10-10-10-10-10-10-10-10-10-10-10-10-10-10-10-10-10-10-10-10-10-10-10-10-------------------------------------------------------------------------|
D|-14-14-14-14-14-14-14-14-14-14-14-14-14-14-14-14-14-14-14-14-14-14-14-14-14-14-14-14-14-14-14-14-14-14-14-14-14-14-14-14-14-14-14-14-14-14-14-14-|
A|-------------------------------------------------------------------------------------------------------------------------------------------------|
E|-------------------------------------------------------------------------------------------------------------------------------------------------|

E|-------------------------------------------------------------------------13-13-13-13-13-13-13-13-13-13-13-13-13-13-13-13-13-13-13-13-13-13-13-13-|
B|-17-17-17-17-17-17-17-17-17-17-17-17-17-17-17-17-17-17-17-17-17-17-17-17-17-17-17-17-17-17-17-17-17-17-17-17-17-17-17-17-17-17-17-17-17-17-17-17-|
G|-------------------------------------------------------------------------10-10-10-10-10-10-10-10-10-10-10-10-10-10-10-10-10-10-10-10-10-10-10-10-|
D|-14-14-14-14-14-14-14-14-14-14-14-14-14-14-14-14-14-14-14-14-14-14-14-14-14-14-14-14-14-14-14-14-14-14-14-14-14-14-14-14-14-14-14-14-14-14-14-14-|
A|-------------------------------------------------------------------------------------------------------------------------------------------------|
E|-------------------------------------------------------------------------------------------------------------------------------------------------|

E|-13-13-13-13-13-13-13-13-13-13-13-13-13-13-13-13-13-13-13-13-13-13-13-13-13-13-13-13-13-13-13-13-13-13-13-13-13-13-13-13-13-13-13-13-13-13-13-13-|
B|-------------------------------------------------------------------------------------------------------------------------------------------------|
G|-10-10-10-10-10-10-10-10-10-10-10-10-10-10-10-10-10-10-10-10-10-10-10-10-10-10-10-10-10-10-10-10-10-10-10-10-10-10-10-10-10-10-10-10-10-10-10-10-|
D|-------------------------------------------------------------------------------------------------------------------------------------------------|
A|-------------------------------------------------------------------------------------------------------------------------------------------------|
E|-------------------------------------------------------------------------------------------------------------------------------------------------|

E|-13-13-13-13-13-13-13-13-13-13-13-13-13-13-13-13-13-13-13-13-13-13-13-13-13-13-13-13-13-13-13-13-13-13-13-13-13-13-13-13-13-13-13-13-13-13-13-13-|
B|-------------------------------------------------------------------------------------------------------------------------------------------------|
G|-10-10-10-10-10-10-10-10-10-10-10-10-10-10-10-10-10-10-10-10-10-10-10-10-10-10-10-10-10-10-10-10-10-10-10-10-10-10-10-10-10-10-10-10-10-10-10-10-|
D|-------------------------------------------------------------------------------------------------------------------------------------------------|
A|-------------------------------------------------------------------------------------------------------------------------------------------------|
E|-------------------------------------------------------------------------------------------------------------------------------------------------|

E|-13-13-13-13-13-13-13-13-13-13-13-13-13-13-13-13-13-13-13-13-13-13-13-13-13-13-13-13-13-13-13-13-13-13-13-13-13-13-13-13-13-13-13-13-13-13-13-13-|
B|-------------------------------------------------------------------------------------------------------------------------------------------------|
G|-10-10-10-10-10-10-10-10-10-10-10-10-10-10-10-10-10-10-10-10-10-10-10-10-10-10-10-10-10-10-10-10-10-10-10-10-10-10-10-10-10-10-10-10-10-10-10-10-|
D|-------------------------------------------------------------------------------------------------------------------------------------------------|
A|-------------------------------------------------------------------------------------------------------------------------------------------------|
E|-------------------------------------------------------------------------------------------------------------------------------------------------|

E|-13-13-13-13-13-13-13-13-13-13-13-13-13-13-13-13-13-13-13-13-13-13-13-13-13-13-13-13-13-13-13-13-13-13-13-13-|
B|-------------------------------------------------------------------------------------------------------------|
G|-10-10-10-10-10-10-10-10-10-10-10-10-10-10-10-10-10-10-10-10-10-10-10-10-10-10-10-10-10-10-10-10-10-10-10-10-|
D|-------------------------------------------------------------------------------------------------------------|
A|-------------------------------------------------------------------------------------------------------------|
E|-------------------------------------------------------------------------------------------------------------|

E|---------|---------|---------|---------|---------|---------|---------|---------|---------|
B|---------|---------|---------|---------|---------|---------|---------|---------|---------|
G|-%-------|-%-------|-%-------|-%-------|---------|---------|---------|---------|---------|
D|-%-------|-%-------|-%-------|-%-------|---------|---------|---------|---------|---------|
A|---------|---------|---------|---------|---------|---------|---------|---------|---------|
E|---------|---------|---------|---------|-0-------|-0-------|-2-------|-2-------|-0-------|

E|---------|---------|---------|---------|----------------------|---------|---------|
B|---------|---------|---------|---------|----------------------|---------|---------|
G|---------|---------|---------|---------|-----------------%----|---------|---------|
D|---------|---------|---------|---------|-----------------%----|---------|---------|
A|---------|---------|---------|---------|----------------------|---------|---------|
E|-0-------|-2-------|-2-------|-0-------|-0-------0---1--------|-2-------|-2-------|

E|---------|----------------------|-------------------|---------|---------|---------|
B|---------|----------------------|-------------------|---------|---------|---------|
G|---------|-----------------%----|-------------------|---------|---------|---------|
D|---------|-----------------%----|--------------4----|---------|---------|---------|
A|---------|----------------------|---------2---------|---------|---------|---------|
E|-0-------|-0-------0---1--------|-2------------2----|-2-------|-2-------|-2-------|

E|---------|-0-------0------------|--------0------|-0--------------------|---------|
B|---------|----------------------|---------------|----------------------|---------|
G|---------|----------------------|---------------|-----------------%----|---------|
D|---------|----------------------|---------------|-----------------%----|---------|
A|-0-------|-0--------------------|---------------|----------------------|---------|
E|---------|--------------2---2---|-0------0------|-0-------0---1--------|-2-------|

E|---------------|--------------------------------|----------------------------------------------------|
B|---------------|-------2-----------2---2--------|-------X---X---X---3-------2---X---X---X---2--------|
G|-------%-------|-------2-----------2---2---%----|-------X---X---X---2---%---2---X---X---X---2---%----|
D|-------%-------|---------------------------%----|-2-----X---X---X-------%-------X---X---X-------%----|
A|---------------|--------------------------------|----------------------------------------------------|
E|-2-------------|-2-----------2------------------|----------------------------------------------------|

E|------------------------------------------|---------------------------------------------------------------|
B|------------------------------------------|-----------------------------2---2----2------------------------|
G|-------1---1---%----%-----1---1---%-------|---------%-----------%-------4--------4--4--2--%--2------------|
D|-------2---2---%----%-----2---2---%-------|---------%-------4---%---X---------------------%-----2----2----|
A|------------------------------------------|-----------------4-------X-------------------------------------|
E|-0------------------------------------0---|-0---2-------2-------------------------------------------------|

E|----------------------------------------------|----------5---5-------7---X---7---9---9---9-------7-----|
B|---------------------------------2---2--------|----------------------X---X---X-------X---X-------X-----|
G|---------%------------------%----2---2---%----|-2----6-----------X---7---X---7---9---9---9---%---7-----|
D|---------%----4-------------%------------%----|-2--------------------------------------------%---------|
A|----------------------------------------------|-0------------------------------------------------------|
E|-0---2--------------2---2---------------------|--------------------------------------------------------|

E|------------------0----------------------------------------|-----------------------------------------------------------------|
B|------------------0----------------------------------------|-----------------2---X---X---X-------------------2---2---X---X---|
G|------%-------1---1---%----%-------%-------1---1---%-------|---------%-------2---X---X---X-------------------2---2---X---X---|
D|------%---2---2-------%----%-------%---2---2---2---%-------|---------%-------------------------------------------------------|
A|----------2----------------------------2-------------------|-----------------------------------------------------------------|
E|-0-----------------------------0-----------------------X---|-0---2-------2-------------------X---2---X---X-------------------|

E|---------|---------|----------------------|----------------------|---------|---------|
B|---------|---------|-------------3--------|-------------2--------|---------|---------|
G|-%-------|-%-------|-%-------%---2---%----|-2-------%---2---%----|-2-------|-%-------|
D|-%-------|-%-------|-%-------%-------%----|-2-------%---2---%----|-0-------|-%-------|
A|---------|---------|----------------------|-0--------------------|---------|---------|
E|---------|---------|----------------------|----------------------|---------|---------|

E|----------------------|---------|-----------------------------------------------|
B|----------------------|---------|-----------2----------------------2---2--------|
G|-%-------%------------|---------|------%----2----%------------%----2---2---%----|
D|-%-------%------------|---------|------%---------%------------%------------%----|
A|----------------------|---------|-----------------------------------------------|
E|--------------2---2---|-0-------|-2-------------------2---2---------------------|

E|------------------------------------------------|-------------------------------------------------|
B|-----------2--------2----2----------------------|-------------------------------------------------|
G|-------%---2---%----4----4----4--4--2--%---2----|-------1---1---%----%-------%-------1---1---%----|
D|-2-----%---2---%-----------------------%--------|-------2---2---%----%-------%-------2---2---%----|
A|------------------------------------------------|-------------------------------------------------|
E|------------------------------------------------|-0----------------------0-------0----------------|

E|-------------------------------------------------------------|---------------------------------------|
B|-----------------2-------------------------------------------|--------------------------2---2--------|
G|---------%-------2---%---4----4----4--4--2--%---2------------|---------------------%----2---2---%----|
D|---------%-----------%----------------------%------2----2----|-------4-------------%------------%----|
A|-------------------------------------------------------------|---------------------------------------|
E|-0---2-------2-----------------------------------------------|-2-----------0---2---------------------|

E|----------------------------------------------------------|---------------------------------------------------|
B|------------------------------14--14--------15------14----|---------------------------------------------------|
G|-2--------2---%---2---X-------14--14--------14--%---14----|-------1---1---%----%--------------%-------%-------|
D|-2--------2---%---2---X---14--14--14--14-16-16--%---14----|-------2---2---%----%--------------%-------%-------|
A|-0----0---0-------0---X-----------------------------------|---------------------------------------------------|
E|----------------------------------------------------------|-0-----------------------2--2--2-------0-------1---|

E|----------------------------------------------|---------------------------------------|
B|-------2---2---------------------2---2--------|-------2------------------2---2--------|
G|-------2---2---%------------%----2---2---%----|-------2-------------%----2---2---%----|
D|---------------%------------%------------%----|---------------------%------------%----|
A|----------------------------------------------|---------------------------------------|
E|-2------------------0---2---------------------|-2-----------0---2---------------------|

E|--------------------------------------------------------------|---------------0---------------------------0---------------|
B|--------------2---X---X---X---X-----------3-------2-----------|---------------0-------------------------------0-----------|
G|-2----2-------2---X---X---X---X-----------2---%---2---%-------|-----------1-------%-------%-------%-----------1---%-------|
D|-2----2-------2---X---X---X---X---2---2---2---%---2---%-------|-----------2-------%-------%-------%---------------%-------|
A|-0----0---0---------------------------------------------------|-----------------------2-----------------------------------|
E|----------------------------------------------------------0---|-0-----0-----------------------0-------0---------------0---|

E|-----------------------------------------------------------------|------------------------------------------|
B|-----------------2---2---------------------------2---2-------2---|-------2------------------2---2-------0---|
G|---------%-------2---2---%---------------%-------2---2---%---2---|-------2-------------%----2---2---%---0---|
D|---------%---------------%---------------%---------------%-------|---------------------%------------%-------|
A|-----------------------------------------------------------------|------------------------------------------|
E|-0---2-------2---------------0---0---2-------2-------------------|-2-----------0---2------------------------|

E|-----------------------------------------------|-----------0-------------------------------------|
B|--------------3-------2-----------2---3---2----|-----------0-------------------------------------|
G|-2------------2---%---2---%-------2-------2----|-------1-------%----%------------%-------%-------|
D|-2------2--4------%---2---%---2-----------2----|-------2-------%----%------------%-------%-------|
A|-0---------------------------------------------|-------------------------------------------------|
E|-----------------------------------------------|-0-----------------------2---2-------0-------0---|

E|--------------------------------------------------------|---------|---------|---------|
B|--------------2---2------------------------2---2--------|---------|---------|-3-------|
G|---------%----2---2---%---------------%----2---2---%----|-%-------|-%-------|-2-------|
D|---------%------------%---------------%------------%----|-%-------|-%-------|-0-------|
A|--------------------------------------------------------|---------|---------|---------|
E|-0---2--------------------0---0---2---------------------|---------|---------|---------|

E|---------|---------|---------|---------|---------|--------------------------------|
B|-2-------|-3-------|---------|---------|---------|-------2-----------2---2--------|
G|-2-------|-2-------|-6-------|-%-------|-%-------|-------2-----------2---2---%----|
D|-2-------|-0-------|-6-------|-%-------|-%-------|---------------------------%----|
A|-0-------|-0-------|-4-------|---------|---------|--------------------------------|
E|---------|---------|-4-------|---------|---------|-2-----------2------------------|

E|-------------------------------------------------------|-------------------------------------------|
B|-------2-----------7-------5-------3-------2-----------|-------------------------------------------|
G|-------2---%-----------%---X---%---X---%---X---%-------|-1-----1---1---%----%----%-----------------|
D|-------2---%---7-------%---5---%---4---%---2---%-------|-2-----2---2---%----%----%---2---2-----2---|
A|-0-----------------------------------------------------|-2-----2---2-------------------------------|
E|---------------------------------------------------0---|-------------------------------------------|

E|-------------------------------------------------------------|---------------------------------------------|
B|-----------------2-------X-----------------------------------|-------2---------------------2---2-----------|
G|---------%-------2---%---X---4---4----4--4--2---2------------|-------2-------------%---%---2---2---%---%---|
D|---------%-----------%-----------------------------2----2----|---------------------%---%-----------%---%---|
A|-------------------------------------------------------------|---------------------------------------------|
E|-0---2-------2-----------------------------------------------|-2-----------2---2---------------------------|

E|--------------------5---5---X---7---7-------5-----|---------------------------------|
B|-----------2--------5---5---X---5---5-------5-----|---------------------------------|
G|-----------2----6---------------7---7---%---6-----|-------1-----%---------1---------|
D|-------2--------------------------------%---------|-------2-----%----2----2----2----|
A|-0------------------------------------------------|------------------2---------2----|
E|--------------------------------------------------|-0--------------------------0----|

E|-----------------------------------------------------|---------|---------|---------|
B|--------------------------------------------2--------|---------|---------|---------|
G|-----------2----------------------------2---2---%----|-%-------|-%-------|-%-------|
D|-----------4----4---4-------------------4-------%----|-%-------|-%-------|-%-------|
A|-----------------------------------------------------|---------|---------|---------|
E|-2-----2----------------0---2---X---X----------------|---------|---------|---------|

E|----------------------|---------------|---------------|---------|---------------|
B|-------------2--------|---------------|---------------|---------|-3------1------|
G|-%-------%---2---%----|-2-------%-----|--------%------|---------|-4------2------|
D|-%-------%-------%----|-0-------%-----|--------%------|-4-------|-5------3------|
A|----------------------|---------------|-4-------------|-2-------|-5------3------|
E|----------------------|---------------|---------------|---------|---------------|

E|-0---------------------|------------5---5-----------7---7---5--------|-----------0---0----0----0--------0----0------0----|
B|-0------------0--------|------------5-------5------------------------|-----------0---0----0----0----0---0----0--0---0----|
G|-0------------0---%----|-2------2---------------0---------------%----|------%----0---0----0----0----0--------0--0---0----|
D|-4----------------%----|-2------2-------------------------------%----|------%----4---4----4----4--------------------4----|
A|-2-------2-------------|-0-------------------------------------------|-----------2---2----2-------------------------2----|
E|-0-------0-------------|---------------------------------------------|-0---------0---0----0----0--------0----------------|

E|-----------------------------------------------------|------------0---------------------------|
B|-----------------14--14---14--14---12----------------|------------X--------------3------------|
G|-2-----X----2----14--14---14--14---12--%----14--14---|-0----------9----9-----X-------2----%---|
D|-2-----X----2--------------------------%----14--14---|-4-----X----9----9-----X------------%---|
A|-0-----X----0----------------------------------------|-2-----X--------------------------------|
E|-----------------------------------------------------|-0--------------------------------------|

E|-----------------------------------------------|-----------------------------------|
B|--------------2----2----2--------3----2--------|-----------------------------------|
G|-2----2---2------------------2------------%----|-------%-------------------2---%---|
D|-2----2---2---2----2---------2---2--------%----|-2-----%----2--------------2---%---|
A|-0----0---0---0----0---------------------------|-2----------2--------------2-------|
E|-----------------------------------------------|-0----------0------0---3---4-------|

E|----------------------------------------------|--------------------------------|---------------------------------------------|
B|----------------------------------------------|-----------------------0--------|------------15--15--15--15--14------12--12---|
G|-2------2----14--14---14--14---16--%----14----|-------------------0---0---%----|------------14--14--14--14--14--%---12--12---|
D|-2------2----14--14---14--14---14--%----14----|-------------------4-------%----|-2------2---14------14--14------%------------|
A|-0------0----12--12---12--12------------------|-2-----2-----2------------------|-0------0------------------------------------|
E|----------------------------------------------|-0-----0-----0------------------|---------------------------------------------|

E|----------------------|-----------------------------------|---------0------------|
B|-------------0--------|--------3--------2-----------------|-1-------1------------|
G|-------------0----%---|-2------2---2----2----2--------%---|-0-----------0---%----|
D|---------4--------%---|-2----------2-------------2----%---|-2---------------%----|
A|-2-------2------------|-0---------------------------------|-3--------------------|
E|-0--------------------|-----------------------------------|----------------------|

E|-2------------2--------|-5--------------------|--------------------|-2-------|--------|
B|-3-------3-------------|-5--------------------|--------6-----4-----|-3-------|--------|
G|-2-------2--------%----|-5-------5-------%----|-4------5-----5-----|-4-------|-%------|
D|-4----------------%----|-7-------7-------%----|-5------4-----4-----|-4-------|-%------|
A|-2---------------------|-8-------8---8--------|-5------5-----0-----|-2-------|--------|
E|-----------------------|----------------------|-3------------------|---------|--------|

E|---------|---------|---------|---------|---------|---------|-3-------------|--------------------|
B|---------|---------|---------|---------|---------|---------|-3-------3-----|-5------5-----------|
G|-%-------|-%-------|-%-------|-%-------|-%-------|-%-------|---------3-----|-5------5----4------|
D|-%-------|-%-------|-%-------|-%-------|-%-------|-%-------|---------------|--------------------|
A|---------|---------|---------|---------|---------|---------|---------------|--------------------|
E|---------|---------|---------|---------|---------|---------|---------------|--------------------|

E|--------------------|---------------|-------------------|-8-----------8-----------|
B|-10----------10-----|---------3-----|-8-----------------|-------8-----8-----8-----|
G|-10-----%----10-----|-7-------------|-8-------%----5----|-------------8-----------|
D|--------%-----------|---------------|---------%---------|-------------------------|
A|--------------------|---------------|-------------------|-------------------------|
E|--------------------|---------------|-------------------|-------------------------|

E|------------------------|-------------------------|---------|---------|---------|
B|-10-----10----10--------|-------------------------|---------|-3-------|---------|
G|--------10----------%---|-7------7----12----------|-3-------|-3-------|-%-------|
D|--------------------%---|--------------------3----|-3-------|---------|-%-------|
A|------------------------|-------------------------|---------|---------|---------|
E|------------------------|-------------------------|---------|---------|---------|

E|---------|---------|---------|---------|---------|---------|---------|---------|---------|
B|---------|---------|---------|---------|---------|---------|---------|---------|---------|
G|-%-------|-%-------|-%-------|-%-------|-%-------|-%-------|-%-------|-%-------|-%-------|
D|-%-------|-%-------|-%-------|-%-------|-%-------|-%-------|-%-------|-%-------|-%-------|
A|---------|---------|---------|---------|---------|---------|---------|---------|---------|
E|---------|---------|---------|---------|---------|---------|---------|---------|---------|

E|---------|---------|---------|---------|---------|---------|---------|---------|---------|
B|---------|---------|---------|---------|---------|---------|---------|---------|---------|
G|-%-------|-%-------|-%-------|-%-------|-%-------|-%-------|-%-------|-%-------|-%-------|
D|-%-------|-%-------|-%-------|-%-------|-%-------|-%-------|-%-------|-%-------|-%-------|
A|---------|---------|---------|---------|---------|---------|---------|---------|---------|
E|---------|---------|---------|---------|---------|---------|---------|---------|---------|

E|---------|---------|--------|---------|---------|---------|---------|---------|---------|
B|---------|---------|--------|---------|---------|---------|---------|---------|---------|
G|-%-------|-%-------|-%------|-%-------|-%-------|-%-------|-%-------|-%-------|-%-------|
D|-%-------|-%-------|-%------|-%-------|-%-------|-%-------|-%-------|-%-------|-%-------|
A|---------|---------|--------|---------|---------|---------|---------|---------|---------|
E|---------|---------|--------|---------|---------|---------|---------|---------|---------|

E|---------|---------|---------|---------|---------|---------|---------|---------|---------|
B|---------|---------|---------|---------|---------|---------|---------|---------|---------|
G|-%-------|-%-------|-%-------|-%-------|-%-------|-%-------|-%-------|-%-------|-%-------|
D|-%-------|-%-------|-%-------|-%-------|-%-------|-%-------|-%-------|-%-------|-%-------|
A|---------|---------|---------|---------|---------|---------|---------|---------|---------|
E|---------|---------|---------|---------|---------|---------|---------|---------|---------|

E|---------|---------|---------|---------|---------|---------|---------|---------|---------|
B|---------|---------|---------|---------|---------|---------|---------|---------|---------|
G|-%-------|-%-------|-%-------|-%-------|-%-------|-%-------|-%-------|-%-------|-%-------|
D|-%-------|-%-------|-%-------|-%-------|-%-------|-%-------|-%-------|-%-------|-%-------|
A|---------|---------|---------|---------|---------|---------|---------|---------|---------|
E|---------|---------|---------|---------|---------|---------|---------|---------|---------|

E|---------|---------|---------|---------|---------|---------|---------|---------|
B|---------|---------|---------|---------|---------|---------|---------|---------|
G|-%-------|-%-------|-%-------|-%-------|-%-------|-%-------|-%-------|-%-------|
D|-%-------|-%-------|-%-------|-%-------|-%-------|-%-------|-%-------|-%-------|
A|---------|---------|---------|---------|---------|---------|---------|---------|
E|---------|---------|---------|---------|---------|---------|---------|---------|
Pink Floyd - Time - Breathe(reprise) - The Great Gig In The Sky
Pink Floyd - Time - Breathe(reprise) - The Great Gig In The Sky.gp4