Pink Floyd - Vera - Bring the boys back home

Pink Floyd



Title: Vera / Bring the boys Back Home
Album: The Wall
Artist: Pink Floyd
Author: Roger Waters

Track 1: Lead Guitar
E|---------|---------|---------|-----------------------------------------|----------------0------------------------|
B|---------|---------|---------|-----------0-----------------------------|-----------0-----------------------------|
G|-%-------|-%-------|-%-------|------0---------0---------0---------0----|------0-------------------0---------0----|
D|-%-------|-%-------|-%-------|-2-------------------2---------2---------|-2-------------------2---------0---------|
A|---------|---------|---------|-----------------------------------------|-----------------------------------------|
E|---------|---------|---------|-----------------------------------------|-----------------------------------------|

E|----------------0------------------------|----------------2------------------------|
B|-----------1---------1-------------------|-----------3---------3-------------------|
G|------0-------------------0--------------|------2-------------------2---------0----|
D|------------------------------------2----|-0-----------------------------0---------|
A|-3-----------------------------3---------|-----------------------------------------|
E|-----------------------------------------|-----------------------------------------|

E|---------------|-----------------------------------------|---------|---------|-----------------------------------------|
B|---------------|----------------1------------------------|---------|---------|-5---------8---------7---------5---------|
G|---------------|-----------0---------0-------------------|---------|---------|------0---------0---------0---------0----|
D|---------------|------2-------------------2---------2----|---------|---------|-2---------5---------4---------2---------|
A|---------------|-3-----------------------------3---------|---------|---------|-----------------------------------------|
E|-3------2------|-----------------------------------------|-0-------|-0-------|-----------------------------------------|

E|----------------------------|---------|-3-------|-2-------|-------------|-0------0----3----0--------------|
B|-10--------13---------------|---------|-1-------|-3-------|-------3-----|-1-------------------------------|
G|------0---------0-----------|---------|-0-------|-2-------|-0-----------|-0-------------------------------|
D|-7---------10--------9------|-9-------|-2-------|-0-------|-------------|-2--------------------------0----|
A|----------------------------|---------|-0-------|---------|-------------|-3---------------------3---------|
E|----------------------------|---------|---------|---------|-------------|---------------------------------|

E|---------|---------------|---------|---------|---------|---------|---------------|
B|---------|---------------|---------|---------|---------|---------|-3-------------|
G|---------|---------%-----|-%-------|-%-------|-%-------|-%-------|-0-------------|
D|-2-------|-2-------%-----|-%-------|-%-------|-%-------|-%-------|-0-------2-----|
A|---------|---------------|---------|---------|---------|---------|-2-------------|
E|---------|---------------|---------|---------|---------|---------|-0-------------|

E|----------------0------------------------|---------------------0-------------------|
B|-----------0-----------------------------|----------------1---------1--------------|
G|------0-------------------0---------0----|-----------0-----------------------------|
D|-2-------------------2---------0---------|------2-----------------------------2----|
A|-----------------------------------------|-3-----------------------------3---------|
E|-----------------------------------------|-----------------------------------------|

E|-----------------------------------------|-3--------------3----2----3----2---------|
B|-----------3---------0----1----2----3----|------0-----------------------------3----|
G|------2----------------------------------|-----------0-----------------------------|
D|-0--------------0------------------------|-----------------------------------------|
A|-----------------------------------------|-----------------------------------------|
E|-----------------------------------------|-3-------------------2-------------------|

E|-0--------------0------------------------|---------|---------|---------|---------|
B|-----------1---------1-------------------|---------|---------|---------|---------|
G|------0-------------------0--------------|---------|---------|-%-------|-%-------|
D|------------------------------------0----|-2-------|-2-------|-%-------|-%-------|
A|-3-----------------------------2---------|---------|---------|---------|---------|
E|-----------------------------------------|---------|---------|---------|---------|

E|---------|---------|---------|---------|---------|---------|---------|---------|---------|
B|---------|---------|---------|---------|---------|---------|---------|---------|---------|
G|-%-------|-%-------|-%-------|-%-------|-%-------|-%-------|-%-------|-%-------|-%-------|
D|-%-------|-%-------|-%-------|-%-------|-%-------|-%-------|-%-------|-%-------|-%-------|
A|---------|---------|---------|---------|---------|---------|---------|---------|---------|
E|---------|---------|---------|---------|---------|---------|---------|---------|---------|

E|---------|---------|---------|---------|---------|---------|---------|
B|---------|---------|---------|---------|---------|---------|---------|
G|-%-------|-%-------|-%-------|-%-------|-%-------|-%-------|-%-------|
D|-%-------|-%-------|-%-------|-%-------|-%-------|-%-------|-%-------|
A|---------|---------|---------|---------|---------|---------|---------|
E|---------|---------|---------|---------|---------|---------|---------|
Pink Floyd - Vera - Bring the boys back home
Pink Floyd - Vera - Bring the boys back home.gp3