Pink Floyd - Welcome To The Machine

Pink Floyd



Title: Welcome to the machine
Album: Wish you were here
Artist: Pink Floyd
Author: Roger Waters

Track 1: David Gilmour / Lead guitar
E|-0-------|---------|---------|-0-------|---------|---------|-0-------|---------|---------|
B|-0-------|---------|---------|-0-------|---------|---------|-0-------|---------|---------|
G|-0-------|-%-------|-%-------|-0-------|-%-------|-%-------|-0-------|-%-------|-%-------|
D|-4-------|-%-------|-%-------|-2-------|-%-------|-%-------|-4-------|-%-------|-%-------|
A|-2-------|---------|---------|-3-------|---------|---------|-2-------|---------|---------|
E|-0-------|---------|---------|---------|---------|---------|-0-------|---------|---------|

E|-0-------|---------|---------|---------|---------|---------|---------|---------|---------|
B|-0-------|---------|---------|---------|---------|---------|---------|---------|---------|
G|-0-------|-%-------|-%-------|-%-------|-%-------|-%-------|-%-------|-%-------|-%-------|
D|-2-------|-%-------|-%-------|-%-------|-%-------|-%-------|-%-------|-%-------|-%-------|
A|-2-------|---------|---------|---------|---------|---------|---------|---------|---------|
E|-0-------|---------|---------|---------|---------|---------|---------|---------|---------|

E|---------|---------|---------|---------|---------|---------|---------|---------|---------|
B|---------|---------|---------|---------|---------|---------|---------|---------|---------|
G|-%-------|-%-------|-%-------|-%-------|-%-------|-%-------|-%-------|-%-------|-%-------|
D|-%-------|-%-------|-%-------|-%-------|-%-------|-%-------|-%-------|-%-------|-%-------|
A|---------|---------|---------|---------|---------|---------|---------|---------|---------|
E|---------|---------|---------|---------|---------|---------|---------|---------|---------|

E|---------|---------|---------|---------|---------|---------|---------|---------|---------|
B|---------|---------|---------|---------|---------|---------|---------|---------|---------|
G|-%-------|-%-------|-%-------|-%-------|-%-------|-%-------|-%-------|-%-------|-%-------|
D|-%-------|-%-------|-%-------|-%-------|-%-------|-%-------|-%-------|-%-------|-%-------|
A|---------|---------|---------|---------|---------|---------|---------|---------|---------|
E|---------|---------|---------|---------|---------|---------|---------|---------|---------|

E|---------|---------|---------|---------|---------|---------|---------|---------|-0------0-----0----0----|
B|---------|---------|---------|---------|---------|---------|---------|---------|-0------0-----0----0----|
G|-%-------|-%-------|-%-------|-%-------|-%-------|-%-------|-%-------|-%-------|-0------0-----0----0----|
D|-%-------|-%-------|-%-------|-%-------|-%-------|-%-------|-%-------|-%-------|-2------2-----2----2----|
A|---------|---------|---------|---------|---------|---------|---------|---------|-3------3-----3----3----|
E|---------|---------|---------|---------|---------|---------|---------|---------|------------------------|

E|-0------0----0----0-----|-0------0----0----0-----|-0------0----0----0-----|-0------0----0----0-----|
B|-0------0----0----0-----|-0------0----0----0-----|-0------0----0----0-----|-0------0----0----0-----|
G|-0------0----0----0-----|-0------0----0----0-----|-0------0----0----0-----|-0------0----0----0-----|
D|-2------2----2----2-----|-2------2----2----2-----|-2------2----2----2-----|-4------4----4----4-----|
A|-3------3----3----3-----|-3------3----3----3-----|-3------3----3----3-----|-2------2----2----2-----|
E|------------------------|------------------------|------------------------|------------------------|

E|-0------0----0----0-----|-0------0----0----0-----|-0------0----0----0-----|-0------0----0----0-----|
B|-0------0----0----0-----|-0------0----0----0-----|-0------0----0----0-----|-0------0----0----0-----|
G|-0------0----0----0-----|-0------0----0----0-----|-0------0----0----0-----|-0------0----0----0-----|
D|-4------4----4----4-----|-4------4----4----4-----|-4------4----4----4-----|-4------4----4----4-----|
A|-2------2----2----2-----|-2------2----2----2-----|-2------2----2----2-----|-2------2----2----2-----|
E|------------------------|------------------------|------------------------|-0------0----0----0-----|

E|-0----0------0----0----0-----|-0------0-----0-----|-0----0----0-----0----0----0-----|
B|-0----0------0----0----0-----|-0------0-----0-----|-0----0----0-----0----0----0-----|
G|-0----0------0----0----0-----|-0------0-----0-----|-0----0----0-----0----0----0-----|
D|-4----4------4----4----4-----|-4------4-----4-----|-4----4----4-----4----4----4-----|
A|-2----2------2----2----2-----|-2------2-----2-----|-2----2----2-----2----2----2-----|
E|-0----0------0----0----0-----|-0------0-----0-----|-0----0----0-----0----0----0-----|

E|-0-------0----0----|-0------0----0----0-----|-0------0----0----0-----|-0-----0-----0----0----0-----|
B|-0-------0----0----|-0------0----0----0-----|-0------0----0----0-----|-0-----0-----0----0----0-----|
G|-0-------0----0----|-0------0----0----0-----|-0------0----0----0-----|-0-----0-----0----0----0-----|
D|-2-------2----2----|-2------2----2----2-----|-2------2----2----2-----|-2-----2-----2----2----2-----|
A|-3-------3----3----|-3------3----3----3-----|-3------3----3----3-----|-3-----3-----3----3----3-----|
E|-------------------|------------------------|------------------------|-----------------------------|

E|-0------0----0----0-----|-0----0------0----0------|-0------0----0----0-----|-0----0------0----0------|
B|-0------0----0----0-----|-0----0------0----0------|-0------0----0----0-----|-0----0------0----0------|
G|-0------0----0----0-----|-0----0------0----0------|-0------0----0----0-----|-0----0------0----0------|
D|-4------4----4----4-----|-4----4------4----4------|-4------4----4----4-----|-4----4------4----4------|
A|-2------2----2----2-----|-2----2------2----2------|-2------2----2----2-----|-2----2------2----2------|
E|-0------0----0----0-----|-0----0------0----0------|-0------0----0----0-----|-0----0------0----0------|

E|-------0----0----0----0----------0----0----0----0----|-----------0----0----0----0----------0----0----0----0----|
B|-------0----0----0----0----------0----0----0----0----|-----------0----0----0----0----------0----0----0----0----|
G|-------0----0----0----0----------0----0----0----0----|-----------0----0----0----0----------0----0----0----0----|
D|-2-------------------------2-------------------------|-2----4------------------------4-------------------------|
A|-----------------------------------------------------|---------------------------------------------------------|
E|-----------------------------------------------------|---------------------------------------------------------|

E|-----------0----0----0----0----------0----0----0----0----|-----------0----0----0----0----------0----0----------|
B|-----------0----0----0----0----------0----0----0----0----|-----------0----0----0----0----------0----0----------|
G|-----------0----0----0----0----------0----0----0----0----|-----------0----0----0----0----------0----0----0-----|
D|-4----5------------------------5-------------------------|-5----7------------------------7---------------------|
A|---------------------------------------------------------|-----------------------------------------------------|
E|---------------------------------------------------------|-----------------------------------------------------|

E|-0----------0--------------0----0---------0----------|-0----------0----------0---------------------|
B|-0-----0----0----0----0----0----0----0----0----0-----|-0-----0----0----0-----0-----0----0----0-----|
G|-0-----0----0----0----0----0----0----0----0----0-----|-0-----0----0----0-----0-----0----0----0-----|
D|-2-----2----2----2----2----2----2----2---------2-----|-2-----2---------2-----2-----2---------2-----|
A|-3-------------------------3-------------------------|-3---------------------3---------------------|
E|-----------------------------------------------------|---------------------------------------------|

E|-0----------0--------------0-------------------------|-0----------0----------0---------------------|
B|-0-----0----0----0---------0-----0----0----0----0----|-0-----0----0----0-----0-----0----0----0-----|
G|-0-----0----0----0----0----0-----0----0----0----0----|-0-----0----0----0-----0-----0----0----0-----|
D|-4-----4----4----4----4----4-----4----4----4----4----|-4-----4----4----4-----4-----4----4----4-----|
A|-2-----2---------2---------2---------------2---------|-2-----2---------2-----2-----2---------2-----|
E|-0-------------------------0-------------------------|-0-------------------------------------------|

E|-0-----0----0----0----0----0-----0----0----0-----|-0-----0----0----0----0----0-----0----0----0-----|
B|-0-----0----0----0----0----0-----0----0----0-----|-0-----0----0----0----0----0-----0----0----0-----|
G|-0-----0----0----0----0----0-----0----0----0-----|-0-----0----0----0----0----0-----0----0----0-----|
D|-2-----2----2----2----2----2-----2----2----2-----|-2-----2----2----2----2----2-----2----2----2-----|
A|-3-----3----3----3----3----3-----3----3----3-----|-2-----2----2----2----2----2-----2----2----2-----|
E|-------------------------------------------------|-0-----0----0----0----0----0-----0----0----0-----|

E|-0----0----0----0----0-----0-----0----0----0----0----|-0----0----0----0----0----0----0-----0----0----0-----|
B|-0----0----0----0----0-----0-----0----0----0----0----|-0----0----0----0----0----0----0-----0----0----0-----|
G|-0----0----0----0----0-----0-----0----0----0----0----|-0----0----0----0----0----0----0-----0----0----0-----|
D|-2----2----2----2----2-----2-----2----2----2----2----|-2----2----2----2----2----2----2-----2----2----2-----|
A|-3----3----3----3----3-----3-----3----3----3----3----|-2----2----2----2----2----2----2-----2----2----2-----|
E|-----------------------------------------------------|-0----0----0----0----0----0----0-----0----0----0-----|

E|-------0----0----0----0----------0----0----0----0----|-----------0----0----0----0----------0----0----0----0----|
B|-------0----0----0----0----------0----0----0----0----|-----------0----0----0----0----------0----0----0----0----|
G|-------0----0----0----0----------0----0----0----0----|-----------0----0----0----0----------0----0----0----0----|
D|-2-------------------------2-------------------------|-2----4------------------------4-------------------------|
A|-----------------------------------------------------|---------------------------------------------------------|
E|-----------------------------------------------------|---------------------------------------------------------|

E|-----------0----0----0----0----------0----0----0----0----|-----------0----0----0----0----------0----0----------|
B|-----------0----0----0----0----------0----0----0----0----|-----------0----0----0----0----------0----0----------|
G|-----------0----0----0----0----------0----0----0----0----|-----------0----0----0----0----------0----0----0-----|
D|-4----5------------------------5-------------------------|-5----7------------------------7---------------------|
A|---------------------------------------------------------|-----------------------------------------------------|
E|---------------------------------------------------------|-----------------------------------------------------|

E|-0----------0--------------0----0---------0----------|-0----------0----------0---------------------|
B|-0-----0----0----0----0----0----0----0----0----0-----|-0-----0----0----0-----0-----0----0----0-----|
G|-0-----0----0----0----0----0----0----0----0----0-----|-0-----0----0----0-----0-----0----0----0-----|
D|-2-----2----2----2----2----2----2----2---------2-----|-2-----2---------2-----2-----2---------2-----|
A|-3-------------------------3-------------------------|-3---------------------3---------------------|
E|-----------------------------------------------------|---------------------------------------------|

E|-0----------0--------------0-------------------------|-0----------0----------0---------------------|
B|-0-----0----0----0---------0-----0----0----0----0----|-0-----0----0----0-----0-----0----0----0-----|
G|-0-----0----0----0----0----0-----0----0----0----0----|-0-----0----0----0-----0-----0----0----0-----|
D|-4-----4----4----4----4----4-----4----4----4----4----|-4-----4----4----4-----4-----4----4----4-----|
A|-2-----2---------2---------2---------------2---------|-2-----2---------2-----2-----2---------2-----|
E|-0-------------------------0-------------------------|-0-------------------------------------------|

E|-0------0-----0-----|-0-----0-----0----0----0-----|-0-----0-----0-----0-----|-0-----0-----0----0----0-----|
B|-0------0-----0-----|-0-----0-----0----0----0-----|-0-----0-----0-----0-----|-0-----0-----0----0----0-----|
G|-0------0-----0-----|-0-----0-----0----0----0-----|-0-----0-----0-----0-----|-0-----0-----0----0----0-----|
D|-2------2-----2-----|-2-----2-----2----2----2-----|-2-----2-----2-----2-----|-2-----2-----2----2----2-----|
A|-2------2-----2-----|-2-----2-----2----2----2-----|-3-----3-----3-----3-----|-3-----3-----3----3----3-----|
E|-0------0-----0-----|-0-----0-----0----0----0-----|-------------------------|-----------------------------|

E|-0-----0-----0-----0-----|-0-----0-----0----0----0-----|-0-----0-----0-----0-----|
B|-0-----0-----0-----0-----|-0-----0-----0----0----0-----|-0-----0-----0-----0-----|
G|-0-----0-----0-----0-----|-0-----0-----0----0----0-----|-0-----0-----0-----0-----|
D|-2-----2-----2-----2-----|-2-----2-----2----2----2-----|-2-----2-----2-----2-----|
A|-2-----2-----2-----2-----|-2-----2-----2----2----2-----|-2-----2-----2-----2-----|
E|-0-----0-----0-----0-----|-0-----0-----0----0----0-----|-0-----0-----0-----0-----|

E|-0-----0-----0-----0----0----|-0------0----0-----0-----|-0-----0----0----0----0----0-----|
B|-0-----0-----0-----0----0----|-0------0----0-----0-----|-0-----0----0----0----0----0-----|
G|-0-----0-----0-----0----0----|-0------0----0-----0-----|-0-----0----0----0----0----0-----|
D|-2-----2-----2-----2----2----|-2------2----2-----2-----|-2-----2----2----2----2----2-----|
A|-2-----2-----2-----2----2----|-3------3----3-----3-----|-3-----3----3----3----3----3-----|
E|-0-----0-----0-----0----0----|-------------------------|---------------------------------|

E|-0-------0-----|-0-----0----0----0----0------|-0-----0-----0-----0-----|-0-----0-----0----0----0-----|
B|-2-------2-----|-2-----2----2----2----2------|-0-----0-----0-----0-----|-0-----0-----0----0----0-----|
G|-2-------2-----|-2-----2----2----2----2------|-0-----0-----0-----0-----|-0-----0-----0----0----0-----|
D|-2-------2-----|-2-----2----2----2----2------|-4-----4-----4-----4-----|-4-----4-----4----4----4-----|
A|-0-------0-----|-0-----0----0----0----0------|-2-----2-----2-----2-----|-2-----2-----2----2----2-----|
E|---------------|-----------------------------|-0-----0-----0-----0-----|-0-----0-----0----0----0-----|

E|-0-----0-----0----0----0-----|-0-----0----0----0----0----0-----|-0------0----0-----0-----|
B|-0-----0-----0----0----0-----|-0-----0----0----0----0----0-----|-0------0----0-----0-----|
G|-0-----0-----0----0----0-----|-0-----0----0----0----0----0-----|-0------0----0-----0-----|
D|-4-----4-----4----4----4-----|-4-----4----4----4----4----4-----|-2------2----2-----2-----|
A|-2-----2-----2----2----2-----|-2-----2----2----2----2----2-----|-3------3----3-----3-----|
E|-0-----0-----0----0----0-----|-0-----0----0----0----0----0-----|-------------------------|

E|-0-----0-----0----0----0-----|-0-----0-----0----0----0-----|-0-----0-----0----0----0-----|
B|-0-----0-----0----0----0-----|-0-----0-----0----0----0-----|-0-----0-----0----0----0-----|
G|-0-----0-----0----0----0-----|-0-----0-----0----0----0-----|-0-----0-----0----0----0-----|
D|-2-----2-----2----2----2-----|-2-----2-----2----2----2-----|-2-----2-----2----2----2-----|
A|-3-----3-----3----3----3-----|-3-----3-----3----3----3-----|-3-----3-----3----3----3-----|
E|-----------------------------|-----------------------------|-----------------------------|

E|-0-----0-----0-----0-----|-0-----0-----0----0----0-----|-0-----0-----0-----0-----|
B|-0-----0-----0-----0-----|-0-----0-----0----0----0-----|-0-----0-----0-----0-----|
G|-0-----0-----0-----0-----|-0-----0-----0----0----0-----|-0-----0-----0-----0-----|
D|-4-----4-----4-----4-----|-4-----4-----4----4----4-----|-4-----4-----4-----4-----|
A|-2-----2-----2-----2-----|-2-----2-----2----2----2-----|-2-----2-----2-----2-----|
E|-0-----0-----0-----0-----|-0-----0-----0----0----0-----|-0-----0-----0-----0-----|

E|-0-----0----0----0----0----0----0----|-0-----0-----0-----0-----|-0-----0-----0----0----0-----|
B|-0-----0----0----0----0----0----0----|-0-----0-----0-----0-----|-0-----0-----0----0----0-----|
G|-0-----0----0----0----0----0----0----|-0-----0-----0-----0-----|-0-----0-----0----0----0-----|
D|-4-----4----4----4----4----4----4----|-2-----2-----2-----2-----|-2-----2-----2----2----2-----|
A|-2-----2----2----2----2----2----2----|-3-----3-----3-----3-----|-3-----3-----3----3----3-----|
E|-0-----0----0----0----0----0----0----|-------------------------|-----------------------------|

E|-0-----0----0----0----0----0-----|-0-----0-----0----0----0-----|-0------0----0-----0-----|
B|-0-----0----0----0----0----0-----|-0-----0-----0----0----0-----|-0------0----0-----0-----|
G|-0-----0----0----0----0----0-----|-0-----0-----0----0----0-----|-0------0----0-----0-----|
D|-2-----2----2----2----2----2-----|-2-----2-----2----2----2-----|-4------4----4-----4-----|
A|-3-----3----3----3----3----3-----|-3-----3-----3----3----3-----|-2------2----2-----2-----|
E|---------------------------------|-----------------------------|-0------0----0-----0-----|

E|-0-----0-----0----0----0-----|-0-----0-----0-----0-----|-0-----0-----0-----0-----|
B|-0-----0-----0----0----0-----|-0-----0-----0-----0-----|-0-----0-----0-----0-----|
G|-0-----0-----0----0----0-----|-0-----0-----0-----0-----|-0-----0-----0-----0-----|
D|-4-----4-----4----4----4-----|-4-----4-----4-----4-----|-4-----4-----4-----4-----|
A|-2-----2-----2----2----2-----|-2-----2-----2-----2-----|-2-----2-----2-----2-----|
E|-0-----0-----0----0----0-----|-0-----0-----0-----0-----|-0-----0-----0-----0-----|

E|-0------0----0----0-----|-0-----0-----0-----0-----|-0-----0-----0----0----0-----|
B|-0------0----0----0-----|-0-----0-----0-----0-----|-0-----0-----0----0----0-----|
G|-0------0----0----0-----|-0-----0-----0-----0-----|-0-----0-----0----0----0-----|
D|-2------2----2----2-----|-2-----2-----2-----2-----|-2-----2-----2----2----2-----|
A|-3------3----3----3-----|-3-----3-----3-----3-----|-3-----3-----3----3----3-----|
E|------------------------|-------------------------|-----------------------------|

E|-0-----0-----0-----0-----|-0-----0-----0-----0-----|-0-----0-----0----0----0----0----|
B|-0-----0-----0-----0-----|-0-----0-----0-----0-----|-0-----0-----0----0----0----0----|
G|-0-----0-----0-----0-----|-0-----0-----0-----0-----|-0-----0-----0----0----0----0----|
D|-2-----2-----2-----2-----|-4-----4-----4-----4-----|-4-----4-----4----4----4----4----|
A|-3-----3-----3-----3-----|-2-----2-----2-----2-----|-2-----2-----2----2----2----2----|
E|-------------------------|-0-----0-----0-----0-----|-0-----0-----0----0----0----0----|

E|-0-----0-----0-----0-----|-0----0----0-----0----0----0-----|-0-----0-----0-----0-----|
B|-0-----0-----0-----0-----|-0----0----0-----0----0----0-----|-0-----0-----0-----0-----|
G|-0-----0-----0-----0-----|-0----0----0-----0----0----0-----|-0-----0-----0-----0-----|
D|-4-----4-----4-----4-----|-4----4----4-----4----4----4-----|-2-----2-----2-----2-----|
A|-2-----2-----2-----2-----|-2----2----2-----2----2----2-----|-2-----2-----2-----2-----|
E|-0-----0-----0-----0-----|-0----0----0-----0----0----0-----|-0-----0-----0-----0-----|

E|-0-----0-----0-----0-----|-0-----0-----0-----0-----|-0----0----0-----0----0----0-----|
B|-0-----0-----0-----0-----|-0-----0-----0-----0-----|-0----0----0-----0----0----0-----|
G|-0-----0-----0-----0-----|-0-----0-----0-----0-----|-0----0----0-----0----0----0-----|
D|-2-----2-----2-----2-----|-2-----2-----2-----2-----|-2----2----2-----2----2----2-----|
A|-2-----2-----2-----2-----|-2-----2-----2-----2-----|-2----2----2-----2----2----2-----|
E|-0-----0-----0-----0-----|-0-----0-----0-----0-----|-0----0----0-----0----0----0-----|

E|-0-----0-----0-----0-----|-0-----0-----0-----0-----|-0-----0-----0-----0-----|-0----0----0-----0----0----0-----|
B|-0-----0-----0-----0-----|-0-----0-----0-----0-----|-0-----0-----0-----0-----|-0----0----0-----0----0----0-----|
G|-0-----0-----0-----0-----|-0-----0-----0-----0-----|-0-----0-----0-----0-----|-0----0----0-----0----0----0-----|
D|-2-----2-----2-----2-----|-2-----2-----2-----2-----|-2-----2-----2-----2-----|-2----2----2-----2----2----2-----|
A|-2-----2-----2-----2-----|-2-----2-----2-----2-----|-2-----2-----2-----2-----|-2----2----2-----2----2----2-----|
E|-0-----0-----0-----0-----|-0-----0-----0-----0-----|-0-----0-----0-----0-----|-0----0----0-----0----0----0-----|

E|-0-----0-----0-----0-----|-0-----0-----0-----0-----|-0-----0-----0-----0-----|-0----0----0-----0----0----0-----|
B|-0-----0-----0-----0-----|-0-----0-----0-----0-----|-0-----0-----0-----0-----|-0----0----0-----0----0----0-----|
G|-0-----0-----0-----0-----|-0-----0-----0-----0-----|-0-----0-----0-----0-----|-0----0----0-----0----0----0-----|
D|-2-----2-----2-----2-----|-2-----2-----2-----2-----|-2-----2-----2-----2-----|-2----2----2-----2----2----2-----|
A|-2-----2-----2-----2-----|-2-----2-----2-----2-----|-2-----2-----2-----2-----|-2----2----2-----2----2----2-----|
E|-0-----0-----0-----0-----|-0-----0-----0-----0-----|-0-----0-----0-----0-----|-0----0----0-----0----0----0-----|
Pink Floyd - Welcome To The Machine
Pink Floyd - Welcome To The Machine.gp4