Pink Floyd - When The Tigers Broke Free

Pink Floyd



Title: when the tigers broke free
Album: the wall soundtrack
Artist: pink floyd/roger waters
Author: pink floyd

Track 1: guitar
E|---------|-------------------|-----------------------|-3------3-----1----|-0------0--------------|
B|-1-------|-1------1----------|-1------1-----3---1----|-------------------|-------------3----1----|
G|-0-------|-0------0-----0----|-----------------------|-0------0----------|-0---------------------|
D|---------|-------------------|-----------------------|-------------------|-----------------------|
A|-3-------|-3------3----------|-3---------------------|-3------3----------|-3---------------------|
E|---------|-------------------|-----------------------|-------------------|-----------------------|

E|-----------------------|-----------------------|-3------3-----3----|-3------3-----5----|
B|-3---------------------|-1------1-----3---1----|-------------------|-------------------|
G|------0-----0-----0----|-0---------------------|-0-----------------|-0-----------------|
D|-----------------------|-----------------------|-------------------|-------------------|
A|-3----3-----3----------|-3---------------------|-3-----------------|-3-----------------|
E|-----------------------|-----------------------|-------------------|-------------------|

E|-3-------|------3----3----3----5----3----|-0------0-----0----|-----------------------|
B|---------|-------------------------------|-------------------|-3------3----1----3----|
G|-0-------|-0----0----0-------------------|-0------0----------|-0---------------------|
D|---------|-------------------------------|-------------------|-----------------------|
A|-3-------|-3----3----3-------------------|-3------3----------|-3---------------------|
E|---------|-------------------------------|-------------------|-----------------------|

E|-0---------------------|-----------------------|-3------3-----1----|-0------------------------|
B|-----------------------|-1------1-----3---1----|-3------3----------|-----1---1-----1-----1----|
G|------0-----0-----0----|-0---------------------|-------------------|--------------------------|
D|-----------------------|-----------------------|-------------------|--------------------------|
A|-3----3-----3----------|-3---------------------|-3------3----------|-3---3---3----------------|
E|-----------------------|-----------------------|-------------------|--------------------------|

E|---------|-0-------|-3------3-----1----|-0------0--------------|-------------------|
B|-1-------|-1-------|-3------3----------|-1------1----3----1----|-3----3-----3------|
G|-0-------|-0-------|-0------0----------|-0------0--------------|------0-----0------|
D|---------|---------|-------------------|-----------------------|-------------------|
A|-3-------|-3-------|-3------3----------|-3------3--------------|-3----3-----3------|
E|---------|---------|-------------------|-----------------------|-------------------|

E|-0-------|-3-------|-3------3-----5----|-3-------|-3------3----5----3----|-0-------|
B|-1-------|-3-------|-1------1----------|-1-------|-3------3--------------|-1-------|
G|-0-------|-0-------|-0------0----------|-0-------|-0------0--------------|-0-------|
D|---------|---------|-------------------|---------|-----------------------|---------|
A|-3-------|---------|-3------3----------|-3-------|-3------3--------------|-3-------|
E|---------|-3-------|-------------------|---------|-----------------------|---------|

E|-----------------------|-0------1------|-----------------------|-3------3-----1----|
B|-3------3-----1---3----|-1------1------|-1------1-----3---1----|-3------3----------|
G|-0---------------------|-0------0------|-0------0--------------|-0------0----------|
D|-0---------------------|---------------|-----------------------|-------------------|
A|-----------------------|-3------3------|-3------3--------------|-------------------|
E|-3---------------------|---------------|-----------------------|-3------3----------|

E|-0----0-----0----------|---------|-3---3---3-----3--------------|-3------3-----1----|
B|-1----1-----1-----1----|-1-------|-1---1---1-----1-----3---1----|-3------3----------|
G|-0----0-----0----------|-0-------|-0---0---0-----0--------------|-0------0----------|
D|-----------------------|---------|------------------------------|-0------0----------|
A|-3----3-----3----------|-3-------|-3---3---3-----3--------------|-------------------|
E|-----------------------|---------|------------------------------|-3------3----------|

E|-0------0--------------|------------3---3---3-----|-0------0--------------|-1-------|
B|-1------1----3----1----|-3----3-----3---3---3-----|-1------1-----3---1----|-1-------|
G|-0------0--------------|------------0---0---0-----|-0------0--------------|-0-------|
D|-----------------------|-0----0-------------------|-----------------------|-0-------|
A|-3------3--------------|--------------------------|-3------3--------------|---------|
E|-----------------------|-3----3-------------------|-----------------------|-3-------|

E|-3------3-----5----|-3----------------0----|-3------3----5----3----|-0------0-----5----|
B|-1------1----------|-1------1----3---------|-3------3--------------|-1------1----------|
G|-0------0----------|-0---------------------|-0------0--------------|-0------0----------|
D|-------------------|-----------------------|-----------------------|-------------------|
A|-3------3----------|-3---------------------|-3------3--------------|-3------3----------|
E|-------------------|-----------------------|-----------------------|-------------------|

E|---------------------------|-0------3------|-3------3--------------|-3------3-----1----|
B|-5----3-----3----1----3----|-1------1------|-1------1-----3---1----|-3------3----------|
G|-0----0-----0--------------|-0------0------|-0------0--------------|-0------0----------|
D|-0----0-----0--------------|---------------|-----------------------|-------------------|
A|---------------------------|-3------3------|-3------3--------------|-------------------|
E|-3----3-----3--------------|---------------|-----------------------|-3------3----------|

E|-0-------------3------|-3----------------|
B|-----1---1-----3------|-3----------------|
G|-0---0---0-----0------|-0----%------%----|
D|----------------------|------%------%----|
A|----------------------|------------------|
E|-3---3---3-----3------|-3----------------|
Pink Floyd - When The Tigers Broke Free
Pink Floyd - When The Tigers Broke Free.gp4