Pink Floyd - Wish You Were Here

Pink Floyd



Title: Wish you were here
Album: Wish you were here
Artist: Pink Floid
Author: Pink Floid

Track 1: guitare cool
E|-----------------------------|------3-----------3------|-------------------------|
B|-----------------------------|------3-----------3------|-------------------------|
G|-----------------------------|-0----0------X----0------|-0-----------------------|
D|-----------------0-----2-----|-2----2-----------2------|-------2-----0-----0-----|
A|-------0----2----------------|-------------------------|-------------------------|
E|-3---------------------------|-------------------------|-------------------3-----|

E|-3-----------3------|-----------------------------|-3----3-----------3------|-------------------------|
B|-3-----------3------|-----------------------------|-3----3-----------3------|-------------------------|
G|-0------X----0------|-----------------------------|-0----0------X----0------|-------------------------|
D|-0------X----0------|-----------------0-----2-----|-2----2-----------2------|-2-----0-----------------|
A|-X------X----X------|-------0----2----------------|-------------------------|-------------2-----0-----|
E|-3-----------3------|-3---------------------------|-------------------------|-------------------------|

E|-0----0-----------0------|-----------------------------|-----------------------------|
B|-2----2-----------2------|-----------------------------|-----------------------------|
G|-2----2------X----2------|-----------------------------|-----------------------------|
D|-2----2------X----2------|-----------------0-----2-----|-----------------0-----2-----|
A|-------------X-----------|-0-----0----2----------------|-0-----0----2----------------|
E|-------------------------|-----------------------------|-----------------------------|

E|------3-----------3------|-------------------------|-3-----------3------|-----------------------------|
B|------3-----------3------|-------------------------|-3-----------3------|-----------------------------|
G|-0----0------X----0------|-0-----------------------|-0------X----0------|-----------------------------|
D|-2----2-----------2------|-------2-----0-----0-----|-0------X----0------|-----------------0-----2-----|
A|-------------------------|-------------------------|-X------X----X------|-------0----2----------------|
E|-------------------------|-------------------3-----|-3-----------3------|-3---------------------------|

E|------3-----------3------|-------------------------|-3-----------3------|-----------------------------|
B|------3-----------3------|-------------------------|-3-----------3------|-----------------------------|
G|-0----0------X----0------|-0-----------------------|-0------X----0------|-----------------------------|
D|-2----2-----------2------|-------2-----0-----0-----|-0------X----0------|-----------------0-----2-----|
A|-------------------------|-------------------------|-X------X----X------|-------0----2----------------|
E|-------------------------|-------------------3-----|-3-----------3------|-3---------------------------|

E|------3-----------3------|-------------------------|-0----0-----------0------|-----------------------------|
B|------3-----------3------|-------------------------|-2----2-----------2------|-----------------------------|
G|-0----0------X----0------|-------------------------|-2----2------X----2------|-----------------------------|
D|-2----2-----------2------|-2-----0-----------------|-2----2------X----2------|-----------------0-----2-----|
A|-------------------------|-------------2-----0-----|-------------X-----------|-0-----0----2----------------|
E|-------------------------|-------------------------|-------------------------|-----------------------------|

E|------3-----------3------|-------------------------|-3-----------3----3-----|-0------0-----0----0----|
B|------3-----------3------|-------------------------|-3-----------0----0-----|-1------1-----1----1----|
G|-0----0------X----0------|-------------------------|-0------X----0----0-----|-0------0-----0----0----|
D|-2----2-----------2------|-2-----0-----------------|-0------X----0----0-----|-2------2-----2----2----|
A|-------------------------|-------------2-----0-----|-X------X----X----2-----|-3------3-----3----3----|
E|-------------------------|-------------------------|-3-----------3----3-----|------------------------|

E|-0------0-----0----0----|-2------2-----2----2----|-2------2-----2----2----|-0------0-----0----0----|
B|-1------1-----1----1----|-3------3-----3----3----|-3------3-----3----3----|-1------1-----1----1----|
G|-0------0-----0----0----|-2------2-----2----2----|-2------2-----2----2----|-2------2-----2----2----|
D|-2------2-----2----2----|-0------0-----0----0----|-0------0-----0----0----|-2------2-----2----2----|
A|-3------3-----3----3----|------------------------|------------------------|-0------0-----0----0----|
E|------------------------|------------------------|------------------------|------------------------|

E|-0------0-----0----0----|-3------3-----3----3----|-3------3-----3----3----|-2------2-----2----2----|
B|-1------1-----1----1----|-0------0-----0----0----|-0------0-----0----0----|-3------3-----3----3----|
G|-2------2-----2----2----|-0------0-----0----0----|-0------0-----0----0----|-2------2-----2----2----|
D|-2------2-----2----2----|-0------0-----0----0----|-0------0-----0----0----|-0------0-----0----0----|
A|-0------0-----0----0----|-2------2-----2----2----|-2------2-----2----2----|------------------------|
E|------------------------|-3------3-----3----3----|-3------3-----3----3----|------------------------|

E|-2------2-----2----2----|-0------0-----0----0----|-0------0-----0----0----|-0------0-----0----0----|
B|-3------3-----3----3----|-1------1-----1----1----|-1------1-----1----1----|-1------1-----1----1----|
G|-2------2-----2----2----|-0------0-----0----0----|-0------0-----0----0----|-2------2-----2----2----|
D|-0------0-----0----0----|-2------2-----2----2----|-2------2-----2----2----|-2------2-----2----2----|
A|------------------------|-3------3-----3----3----|-3------3-----3----3----|-0------0-----0----0----|
E|------------------------|------------------------|------------------------|------------------------|

E|-0------0-----0----0----|-3------3-----3----3----|-3------3-----3-----|-----------------------------|
B|-1------1-----1----1----|-0------0-----0----0----|-0------0-----0-----|-----------------------------|
G|-2------2-----2----2----|-0------0-----0----0----|-0------0-----0-----|-----------------------------|
D|-2------2-----2----2----|-0------0-----0----0----|-0------0-----0-----|-----------------0-----2-----|
A|-0------0-----0----0----|-2------2-----2----2----|-2------2-----2-----|-------0----2----------------|
E|------------------------|-3------3-----3----3----|-3------3-----3-----|-3---------------------------|

E|------3-----------3------|-------------------------|-3-----------3------|-----------------------------|
B|------3-----------3------|-------------------------|-3-----------3------|-----------------------------|
G|-0----0------X----0------|-0-----------------------|-0------X----0------|-----------------------------|
D|-2----2-----------2------|-------2-----0-----0-----|-0------X----0------|-----------------0-----2-----|
A|-------------------------|-------------------------|-X------X----X------|-------0----2----------------|
E|-------------------------|-------------------3-----|-3-----------3------|-3---------------------------|

E|-3----3-----------3------|-------------------------|-0----0-----------0------|-----------------------------|
B|-3----3-----------3------|-------------------------|-2----2-----------2------|-----------------------------|
G|-0----0------X----0------|-------------------------|-2----2------X----2------|-----------------------------|
D|-2----2-----------2------|-2-----0-----------------|-2----2------X----2------|-----------------0-----2-----|
A|-------------------------|-------------2-----0-----|-------------X-----------|-0-----0----2----------------|
E|-------------------------|-------------------------|-------------------------|-----------------------------|

E|-----------------------------|------3-----------3------|-------------------------|
B|-----------------------------|------3-----------3------|-------------------------|
G|-----------------------------|-0----0------X----0------|-0-----------------------|
D|-----------------0-----2-----|-2----2-----------2------|-------2-----0-----0-----|
A|-0-----0----2----------------|-------------------------|-------------------------|
E|-----------------------------|-------------------------|-------------------3-----|

E|-3-----------3------|-----------------------------|------3-----------3------|-------------------------|
B|-3-----------3------|-----------------------------|------3-----------3------|-------------------------|
G|-0------X----0------|-----------------------------|-0----0------X----0------|-0-----------------------|
D|-0------X----0------|-----------------0-----2-----|-2----2-----------2------|-------2-----0-----0-----|
A|-X------X----X------|-------0----2----------------|-------------------------|-------------------------|
E|-3-----------3------|-3---------------------------|-------------------------|-------------------3-----|

E|-3-----------3------|-----------------------------|------3-----------3------|-------------------------|
B|-3-----------3------|-----------------------------|------3-----------3------|-------------------------|
G|-0------X----0------|-----------------------------|-0----0------X----0------|-------------------------|
D|-0------X----0------|-----------------0-----2-----|-2----2-----------2------|-2-----0-----------------|
A|-X------X----X------|-------0----2----------------|-------------------------|-------------2-----0-----|
E|-3-----------3------|-3---------------------------|-------------------------|-------------------------|

E|-0----0-----------0------|-----------------------------|------3-----------3------|
B|-2----2-----------2------|-----------------------------|------3-----------3------|
G|-2----2------X----2------|-----------------------------|-0----0------X----0------|
D|-2----2------X----2------|-----------------0-----2-----|-2----2-----------2------|
A|-------------X-----------|-0-----0----2----------------|-------------------------|
E|-------------------------|-----------------------------|-------------------------|

E|-------------------------|-3-----------3----3-----|-0------0-----0----0----|-0------0-----0----0----|
B|-------------------------|-3-----------0----0-----|-1------1-----1----1----|-1------1-----1----1----|
G|-------------------------|-0------X----0----0-----|-0------0-----0----0----|-0------0-----0----0----|
D|-2-----0-----------------|-0------X----0----0-----|-2------2-----2----2----|-2------2-----2----2----|
A|-------------2-----0-----|-X------X----X----2-----|-3------3-----3----3----|-3------3-----3----3----|
E|-------------------------|-3-----------3----3-----|------------------------|------------------------|

E|-2------2-----2----2----|-2------2-----2----2----|-0------0-----0----0----|-0------0-----0----0----|
B|-3------3-----3----3----|-3------3-----3----3----|-1------1-----1----1----|-1------1-----1----1----|
G|-2------2-----2----2----|-2------2-----2----2----|-2------2-----2----2----|-2------2-----2----2----|
D|-0------0-----0----0----|-0------0-----0----0----|-2------2-----2----2----|-2------2-----2----2----|
A|------------------------|------------------------|-0------0-----0----0----|-0------0-----0----0----|
E|------------------------|------------------------|------------------------|------------------------|

E|-3------3-----3----3----|-3------3-----3----3----|-2------2-----2----2----|-2------2-----2----2----|
B|-0------0-----0----0----|-0------0-----0----0----|-3------3-----3----3----|-3------3-----3----3----|
G|-0------0-----0----0----|-0------0-----0----0----|-2------2-----2----2----|-2------2-----2----2----|
D|-0------0-----0----0----|-0------0-----0----0----|-0------0-----0----0----|-0------0-----0----0----|
A|-2------2-----2----2----|-2------2-----2----2----|------------------------|------------------------|
E|-3------3-----3----3----|-3------3-----3----3----|------------------------|------------------------|

E|-0------0-----0----0----|-0------0-----0----0----|-0------0-----0----0----|-0------0-----0----0----|
B|-1------1-----1----1----|-1------1-----1----1----|-1------1-----1----1----|-1------1-----1----1----|
G|-0------0-----0----0----|-0------0-----0----0----|-2------2-----2----2----|-2------2-----2----2----|
D|-2------2-----2----2----|-2------2-----2----2----|-2------2-----2----2----|-2------2-----2----2----|
A|-3------3-----3----3----|-3------3-----3----3----|-0------0-----0----0----|-0------0-----0----0----|
E|------------------------|------------------------|------------------------|------------------------|

E|-3------3-----3----3----|-3------3-----3-----|-----------------------------|------3-----------3------|
B|-0------0-----0----0----|-0------0-----0-----|-----------------------------|------3-----------3------|
G|-0------0-----0----0----|-0------0-----0-----|-----------------------------|-0----0------X----0------|
D|-0------0-----0----0----|-0------0-----0-----|-----------------0-----2-----|-2----2-----------2------|
A|-2------2-----2----2----|-2------2-----2-----|-------0----2----------------|-------------------------|
E|-3------3-----3----3----|-3------3-----3-----|-3---------------------------|-------------------------|

E|-------------------------|-3-----------3------|-3-------|
B|-------------------------|-3-----------3------|-3-------|
G|-0-----------------------|-0------X----0------|-0-------|
D|-------2-----0-----0-----|-0------X----0------|-0-------|
A|-------------------------|-X------X----X------|-X-------|
E|-------------------3-----|-3-----------3------|-3-------|
Pink Floyd - Wish You Were Here
Pink Floyd - Wish You Were Here.gp3