Pink Floyd - Wish You Were Here (2)

Pink Floyd



Title: Wish You Were Here
Album: Wish You Were Here
Artist: Pink Floyd
Author: 

Track 1: Acoustic Guitar
E|---------|---------|---------|---------|---------|---------|---------|---------|---------|
B|---------|---------|---------|---------|---------|---------|---------|---------|---------|
G|-%-------|-%-------|-%-------|-%-------|-%-------|-%-------|-%-------|-%-------|-%-------|
D|-%-------|-%-------|-%-------|-%-------|-%-------|-%-------|-%-------|-%-------|-%-------|
A|---------|---------|---------|---------|---------|---------|---------|---------|---------|
E|---------|---------|---------|---------|---------|---------|---------|---------|---------|

E|---------|---------|--------------------------------------------------|----------------------------|
B|---------|---------|--------------3-----5-------3----3----------------|----------------------------|
G|-%-------|-%-------|-%----2---4-------------4-------------4---2---0---|----------------------%-----|
D|-%-------|-%-------|-%------------------------------------------------|-0----------0---0-----%-----|
A|---------|---------|--------------------------------------------------|--------2-------------------|
E|---------|---------|--------------------------------------------------|----------------------------|

E|------5----3--------------------------------|-------------------|----------------------------------------------------------|
B|------5----3----5----3---------5----3-------|-------------------|--------------3-------5----5-----------5--5--3-------3----|
G|-%--------------4----2----0----4----2---0---|-4-------4----%----|-%----2---4-------4------------%---%-------------4--------|
D|-%------------------------------------------|-5-------5----%----|-%-----------------------------%---%----------------------|
A|--------------------------------------------|-------------------|----------------------------------------------------------|
E|--------------------------------------------|-------------------|----------------------------------------------------------|

E|---------------------------------------|----------------------------------------------------|
B|---------------3---5-------------------|--------------3----5---------5---5---5--5--3---5----|
G|-2-----4---4-----------4----2-----%----|-%----2---4-------------%---------------------------|
D|----------------------------------%----|-%----------------------%---------------------------|
A|---------------------------------------|----------------------------------------------------|
E|---------------------------------------|----------------------------------------------------|

E|---------------------------3---|-3-----3---3---3----3-----3---3--------|--------------------0-----------------0--------|
B|-----------------------3---3---|-3-----3---3---3----3-----3---3---3----|-1----1----1----1---1---1----1----1---1---1----|
G|-2------4---4---2------0---0---|-0-----0---0---0----0-----0---0---0----|-0----0----0----0---0---0----0----0---0---0----|
D|-----------------------0-------|-0-----0---0---0----0-----0-------0----|-2----2----2----2---2---2----2----2---2---2----|
A|-------------------------------|---------------------------------------|-3----3----3----3---3---3----3----3---3---3----|
E|-------------------------------|-3---------3---3----3-----3-------3----|-3----3----3----3-------3----3----3-------3----|

E|---------------2-------2-----------------2--------|-0---------0-------0-------------0---0-----------|
B|-3---------3---3---3---3---3---------3---3---3----|-1-----1---1---1---1---1----1----1---1---X-------|
G|-2----2----2---2---2---2---2----2----2---2---2----|-2-----2---2---2---2---2----2----2---2---X---0---|
D|-0----0----0---0---0---0---0----0----0---0---0----|-2-----2---2---2---2---2----2----2---2---X---0---|
A|--------------------------------------------------|-0-----0-------0-------0----0----0-------0-------|
E|-2----2----2-------2-------2----2----2-------2----|---------------0---------------------------------|

E|---------------3-------3-----------------3--------|-2-----X---2---2---2---2---2-----2---2---2----|
B|-3---------3---3---3---3---3---------3---3---3----|-3-----X---3---3---3---3---3-----3---3---3----|
G|-0----0----0---0---0---0---0----0----0---0---0----|-2-----X---2---2---2---2---2-----2---2---2----|
D|-0----0----0---0---0---0---0----0----0---0---0----|-0-----0---0---0---0---0---0-----0---0---0----|
A|--------------------------------------------------|----------------------------------------------|
E|-3----3----3-------3-------3----3----3-------3----|-------------------2--------------------------|

E|-0-----0---0---0---0----0----0---0---0---0---0----|-0----0---0---0---0---0---0---0----0-----0----|
B|-1-----1---1---1---1----1----1---1---1---1---1----|-1----1---1---1---1---1---1---1----1-----1----|
G|-0-----0---0---0---0----0----0---0---0---0---0----|-2----2---2---2---2---2---2---2----2-----2----|
D|-2-----2---2---2---2----2----2---2---2---2---2----|-2----2---2---2---2---2---2---2----2-----2----|
A|-3-----3---3---3---3----3----3---3---3---3---3----|-0----0---0---0---0---0---0---0----0-----0----|
E|-3-----3---3---3---3----3----3---3---3---3---3----|----------------------------------------------|

E|-3-----3---3---3---3---3-----3---3---3----|--------------------0-----------------0--------|
B|-3-----3---3---3---3---3-----3---3---3----|-1----1----1----1---1---1----1----1---1---1----|
G|-0-----0---0---0---0---0-----0---0---0----|-0----0----0----0---0---0----0----0---0---0----|
D|-0-----0---0---0---0---0-----0---0---0----|-2----2----2----2---2---2----2----2---2---2----|
A|------------------------------------------|-3----3----3----3---3---3----3----3---3---3----|
E|-3-----3---3---3---3---3-----3---3---3----|-3----3----3----3-------3----3----3-------3----|

E|---------------2-------2-----------------2--------|-0---------0-------0-------------0---0-----------|
B|-3---------3---3---3---3---3---------3---3---3----|-1-----1---1---1---1---1----1----1---1---X-------|
G|-2----2----2---2---2---2---2----2----2---2---2----|-2-----2---2---2---2---2----2----2---2---X---0---|
D|-0----0----0---0---0---0---0----0----0---0---0----|-2-----2---2---2---2---2----2----2---2---X---0---|
A|-X----X----X-------X-------X----X----X-------X----|-0-----0-------0-------0----0----0-------0-------|
E|-2----2----2-------2-------2----2----2-------2----|---------------0---------------------------------|

E|---------------3-------3-----------------3--------|-2-----X---2---2---2---2---2-----2---2---2----|
B|-3---------3---3---3---3---3---------3---3---3----|-3-----X---3---3---3---3---3-----3---3---3----|
G|-0----0----0---0---0---0---0----0----0---0---0----|-2-----X---2---2---2---2---2-----2---2---2----|
D|-0----0----0---0---0---0---0----0----0---0---0----|-0-----0---0---0---0---0---0-----0---0---0----|
A|--------------------------------------------------|----------------------------------------------|
E|-3----3----3-------3-------3----3----3-------3----|-------------------2--------------------------|

E|-0-----0---0---0---0----0----0---0---0---0---0----|-0-----0---0---0----0-----0---0---0----|
B|-1-----1---1---1---1----1----1---1---1---1---1----|-1-----1---1---1----1-----1---1---1----|
G|-0-----0---0---0---0----0----0---0---0---0---0----|-2-----2---2---2----2-----2---2---2----|
D|-2-----2---2---2---2----2----2---2---2---2---2----|-2-----2---2---2----2-----2---2---2----|
A|-3-----3---3---3---3----3----3---3---3---3---3----|-0-----0---0---0----0-----0---0---0----|
E|-3-----3---3---3---3----3----3---3---3---3---3----|---------------------------------------|

E|-3----3--------3-----3----------------------|-----------3--------3---3----3---3---3---------|
B|-3----3--------3-----3----------------------|-----------3----3---3---3----3---3---3---------|
G|-0----0----0---0-----0----------------------|------0----0----0-------0------------0---------|
D|-0----0----0---------------------------0----|-2---------0----0-------2-----------------2----|
A|-2----2----2-------------------0---2--------|-----------------------------------------------|
E|-3----3----3--------------3-----------------|-----------3----3------------------------------|

E|----------3---3----3----3---3------------3--------|-----------3--------3---3---3---3--------------|
B|------3---3---3----3----3---3------------3--------|------3----3----3---3---3---3---3--------------|
G|------0---0---0----0----0-------------------------|------0----0----0---0---0---0---0----0---------|
D|-0------------0------------------------------0----|-2------------------------------2---------2----|
A|-------------------------------------0---2--------|-----------------------------------------------|
E|--------------3-----------------3-----------------|-----------------------------------------------|

E|----------3---3----3----3---3------------3--------|------3---3---3----3---3---3---3--------3---------|
B|------3---3---3----3----3---3------------3--------|------3---3---3----3---3---3---3--------3---------|
G|------0---0---0----0----0-------------------------|------0-------0----0-------0---0--------0---------|
D|-0------------0------------------------------0----|-2---------------------------------2----0---------|
A|-------------------------------------0---2--------|---------------------------------------------2----|
E|--------------3-----------------3-----------------|--------------------------------------------------|

E|-----------3---3---3----3---3---3---3-------3--------|------3---3---3----3---3---3---3--------3---------|
B|-----------3---3---3----3---3---3---3-------3--------|------3---3---3----3---3---3---3--------3---------|
G|-----------0-------0----0---0------------------------|------0---0---0----0---0---0---0--------0---------|
D|------2------------2----2-----------------------0----|-2---------------------------------2----0---------|
A|-0--------------------------------------0---2--------|---------------------------------------------2----|
E|-----------------------------------------------------|--------------------------------------------------|

E|--------------3---3---3---3---3----3---3-------3-----------|-3---------3-------3-----------------3-------3---|
B|--------------3---3---3---3---3----3---3-------3-----------|-3-----3---3---3---3---3----3----3---3---3---3---|
G|--------------0---0---0---0---0----0---0-------0-----------|-0-----0---0---0---0---0----0----0---0---0---0---|
D|------2---2--------------------------------0---2---0---2---|-0-----0---0---0---0---0----0----0---0---0---0---|
A|-0---------------------------------------------------------|-------------------------------------------------|
E|-----------------------------------------------------------|-3-----3-------3-------3----3----3-------3-------|

E|-0-----0-----0----0--------0-------0---|-2----2--------2-------2---2----2--------2---2----|
B|-1-----1-----1----1----1---1---1---1---|-3----3----3---3---3---3---3----3----3---3---3----|
G|-0-----0-----0----0----0---0---0---0---|-2----2----2---2---2---2---2----2----2---2---2----|
D|-2-----2-----2----2----2---2---2---2---|-0----0----0---0---0---0---0----0----0---0---0----|
A|-3-----3-----3----3----3---3---3---3---|--------------------------------------------------|
E|-3-----3-----3----3----3-------3-------|-2----2----2-------2-------2----2----2-------2----|

E|-0----0----0---0-----0---0---------0-------0---|-3----3----3---3----3---3----3---3---3---3---3----|
B|-1----1----1---1-----1---1-----1---1---1---1---|-3----3----3---3----3---3----3---3---3---3---3----|
G|-2----2----2---2-----2---2-----2---2---2---2---|-0----0----0---0----0---0----0---0---0---0---0----|
D|-2----2----2---2-----2---2-----2---2---2---2---|-0----0----0---0----0---0----0---0---0---0---0----|
A|-0----0----0---0-----0---0-----0-------0-------|--------------------------------------------------|
E|-----------------------------------------------|-3----3----3------------3----3-------3-------3----|

E|-2-----2---2---2----2----2----2---2---2----|-0-----0---0-----0----0----0---0---0----|
B|-3-----3---3---3----3----3----3---3---3----|-1-----1---1-----1----1----1---1---1----|
G|-2-----2---2---2----2----2----2---2---2----|-0-----0---0-----0----0----0---0---0----|
D|-0-----0---0---0----0----0----0---0---0----|-2-----2---2-----2----2----2---2---2----|
A|-------------------------------------------|-3-----3---3-----3----3----3---3---3----|
E|-2-----2---2---2----2----2----2-------2----|-3-----3---------3----3----3-------3----|

E|-0-----0---0---0---0---0--------0---0---0-------0---|-3--------------------------------------|
B|-1-----1---1---1---1---1----1---1---1---1---1---1---|-3---------3-----3----3-----------------|
G|-2-----2---2---2---2---2----2---2---2---2---2---2---|-0-----0---0-----0----0-----------------|
D|-2-----2---2---2---2---2----2---2---2---2---2---2---|-0-----0---0-----0----0------------0----|
A|-0-----0---------------0----0-------0-------0-------|---------------------------0---2--------|
E|---------------0------------------------------------|-3-----3--------------3-----------------|

E|-----------3----3---3--------3---3-------------|----------3--------3----3---3---------------------|
B|-----------3----3---3--------3---3-------------|------3---3--------3----3---3---------------------|
G|------0----0----0---0---0------------0---------|------0---0--------0----0-------------------------|
D|-2----------------------2-----------------2----|-0------------0------------------------------0----|
A|-----------------------------------------------|-------------------------------------0---2--------|
E|-----------------------------------------------|--------------3-----------------3-----------------|

E|-----------3----3---3---3---3------------------|----------3--------3----3---3---------------------|
B|------3----3----3---3---3---3------------------|------3---3--------3----3---3---------------------|
G|------0----0----0---0---0---0--------0---------|------0---0--------0----0-------------------------|
D|-2------------------------------2---------2----|-0------------0------------------------------0----|
A|-----------------------------------------------|-------------------------------------0---2--------|
E|-----------------------------------------------|--------------3-----------------3-----------------|

E|------3---3---3----3---3---3---3------------------|-----------3---3---3----3---3---3---3----------------|
B|------3---3---3----3---3---3---3------------------|-----------3---3---3----3---3---3---3----------------|
G|------0---0---0----0---0---0---0------------------|-----------0---0---0----0---0------------------------|
D|-2---------------------------------2----0---------|------2------------2----2-----------------------0----|
A|---------------------------------------------2----|-0--------------------------------------0---2--------|
E|--------------------------------------------------|-----------------------------------------------------|

E|------3---3---3----3---3---3---3------------------|--------------3----3--------3-------3-------------------|
B|------3---3---3----3---3---3---3------------------|--------------3----3--------3-------3---3---3-------3---|
G|------0---0---0----0---0---0---0------------------|--------------0----0------------2---0---0---0---0---0---|
D|-2---------------------------------2----0---------|------2---2--------0----0---------------0---0---0---0---|
A|---------------------------------------------2----|-0--------------------------------------0---2---0-------|
E|--------------------------------------------------|--------------------------------------------------------|

E|-3-----3---3---3----3----3----3---3---3---3---|-3----3----3---3----3---3---3---3-----------------|
B|-3-----3---3---3----3----3----3---3---3---3---|-3----3----3---3----3---3---3---3-----------------|
G|-0-----0---0---0----0----0----0---0---0---0---|-0----0----0---0----0---0---0---0-----------------|
D|-0-----0---0---0----0----0----0---0---0---0---|-0----0----0---0----0---0---0---0------------0----|
A|----------------------------------------------|-------------------------------------0---2--------|
E|-3-----3---3---3----3----3----3---3---3---3---|-3----3----3---3----3---3---3---3-----------------|

E|-----------3--------3---3----3---3---3---------|----------3---3----3----3---3------------3--------|
B|-----------3----3---3---3----3---3---3---------|------3---3---3----3----3---3------------3--------|
G|------0----0----0-------0------------0---------|------0---0---0----0----0-------------------------|
D|-2---------0----0-------2-----------------2----|-0------------0------------------------------0----|
A|-----------------------------------------------|-------------------------------------0---2--------|
E|-----------3----3------------------------------|--------------3-----------------3-----------------|

E|-----------3--------3---3---3---3--------------|----------3---3----3----3---3------------3--------|
B|------3----3----3---3---3---3---3--------------|------3---3---3----3----3---3------------3--------|
G|------0----0----0---0---0---0---0----0---------|------0---0---0----0----0-------------------------|
D|-2------------------------------2---------2----|-0------------0------------------------------0----|
A|-----------------------------------------------|-------------------------------------0---2--------|
E|-----------------------------------------------|--------------3-----------------3-----------------|

E|------3---3---3----3---3---3---3--------3---------|-----------3---3---3----3---3---3---3-------3--------|
B|------3---3---3----3---3---3---3--------3---------|-----------3---3---3----3---3---3---3-------3--------|
G|------0-------0----0-------0---0--------0---------|-----------0-------0----0---0------------------------|
D|-2---------------------------------2----0---------|------2------------2----2-----------------------0----|
A|---------------------------------------------2----|-0--------------------------------------0---2--------|
E|--------------------------------------------------|-----------------------------------------------------|

E|------3---3---3----3---3---3---3--------3---------|--------------3----3--------3-------3-------------------|
B|------3---3---3----3---3---3---3--------3---------|--------------3----3--------3-------3---3---3-------3---|
G|------0-------0----0-------0---0--------0---------|--------------0----0----%---------------0---0---0---0---|
D|-2---------------------------------2----0---------|------2---2-------------%-------2---0---0---0---0-------|
A|---------------------------------------------2----|-0-----------------0--------0-----------0---2-----------|
E|--------------------------------------------------|--------------------------------------------------------|

E|-3-----3---3---3----3----3----3---3---3---3---|-3----3----3---3----3---3---3---3-----------------|
B|-3-----3---3---3----3----3----3---3---3---3---|-3----3----3---3----3---3---3---3-----------------|
G|-0-----0---0---0----0----0----0---0---0---0---|-0----0----0---0----0---0---0---0-----------------|
D|-0-----0---0---0----0----0----0---0---0---0---|-0----0----0---0----0---0---0---0------------0----|
A|----------------------------------------------|-------------------------------------0---2--------|
E|-3-----3---3---3----3----3----3---3---3---3---|-3----3----3---3----3---3---3---3-----------------|

E|-----------3--------3---3----3---3---3---------|----------3---3----3----3---3------------3--------|
B|-----------3----3---3---3----3---3---3---------|------3---3---3----3----3---3------------3--------|
G|------0----0----0-------0------------0---------|------0---0---0----0----0-------------------------|
D|-2---------0----0-------2-----------------2----|-0------------0------------------------------0----|
A|-----------------------------------------------|-------------------------------------0---2--------|
E|-----------3----3------------------------------|--------------3-----------------3-----------------|

E|-----------3--------3---3---3---3--------------|----------3---3----3----3---3------------3--------|
B|------3----3----3---3---3---3---3--------------|------3---3---3----3----3---3------------3--------|
G|------0----0----0---0---0---0---0----0---------|------0---0---0----0----0-------------------------|
D|-2------------------------------2---------2----|-0------------0------------------------------0----|
A|-----------------------------------------------|-------------------------------------0---2--------|
E|-----------------------------------------------|--------------3-----------------3-----------------|

E|------3---3---3----3---3---3---3--------3---------|-----------3---3---3----3---3---3---3-------3--------|
B|------3---3---3----3---3---3---3--------3---------|-----------3---3---3----3---3---3---3-------3--------|
G|------0-------0----0-------0---0--------0---------|-----------0-------0----0---0------------------------|
D|-2---------------------------------2----0---------|------2------------2----2-----------------------0----|
A|---------------------------------------------2----|-0--------------------------------------0---2--------|
E|--------------------------------------------------|-----------------------------------------------------|

E|------3---3---3----3---3---3---3--------3---------|--------------3----3--------3-------3-------------------|
B|------3---3---3----3---3---3---3--------3---------|--------------3----3--------3-------3---3---3-------3---|
G|------0-------0----0-------0---0--------0---------|--------------0----0----%---------------0---0---0---0---|
D|-2---------------------------------2----0---------|------2---2-------------%-------2---0---0---0---0-------|
A|---------------------------------------------2----|-0-----------------0--------0-----------0---2-----------|
E|--------------------------------------------------|--------------------------------------------------------|

E|-3-------|
B|-3-------|
G|-0-------|
D|-0-------|
A|---------|
E|-3-------|
Pink Floyd - Wish You Were Here (2)
Pink Floyd - Wish You Were Here (2).gp3