Pink Floyd - Wish You Were Here (3)

Pink Floyd



Title: Wish You Were Here
Album: 
Artist: Pink Floyd
Author: 

Track 1: Guitar 1 (12-string)
E|---------------------------|-----------3----3---3--------3---3-------------|----------3--------3----3---3---------------------|
B|---------------------------|-----------3----3---3--------3---3-------------|------3---3--------3----3---3---------------------|
G|-%------%------------------|------0----0----0---0---0------------0---------|------0---0--------0----0-------------------------|
D|-%------%-------------0----|-2----------------------2-----------------2----|-0------------0------------------------------0----|
A|--------------0---2--------|-----------------------------------------------|-------------------------------------0---2--------|
E|---------------------------|-----------------------------------------------|--------------3-----------------3-----------------|

E|-----------3----3---3---3---3------------------|----------3--------3----3---3---------------------|
B|------3----3----3---3---3---3------------------|------3---3--------3----3---3---------------------|
G|------0----0----0---0---0---0--------0---------|------0---0--------0----0-------------------------|
D|-2------------------------------2---------2----|-0------------0------------------------------0----|
A|-----------------------------------------------|-------------------------------------0---2--------|
E|-----------------------------------------------|--------------3-----------------3-----------------|

E|------3---3---3----3---3---3---3------------------|-----------3---3---3----3---3---3---3----------------|
B|------3---3---3----3---3---3---3------------------|-----------3---3---3----3---3---3---3----------------|
G|------0---0---0----0---0---0---0------------------|-----------0---0---0----0---0------------------------|
D|-2---------------------------------2----0---------|------2------------2----2-----------------------0----|
A|---------------------------------------------2----|-0--------------------------------------0---2--------|
E|--------------------------------------------------|-----------------------------------------------------|

E|------3---3---3----3---3---3---3------------------|--------------3-------------3---------------------------|
B|------3---3---3----3---3---3---3------------------|--------------3-------------3-----------3---3-------3---|
G|------0---0---0----0---0---0---0------------------|--------------0-------------------------0---0---0---0---|
D|-2---------------------------------2----0---------|------2---2---------------------2---0-----------0-------|
A|---------------------------------------------2----|-0-----------------0----0---------------0---2-----------|
E|--------------------------------------------------|--------------------------------------------------------|

E|-3------------3---------3-------------3---3----|-3-------------3---3----3----------------------|
B|-3----3---3---3---------3-------------3---3----|-3-------------3---3----3----------------------|
G|-0----0---0---0---------0-------------0---0----|-0-------------0---0----0----------------------|
D|-0----0-------0---------0---------0---0---0----|-0---------0---0---0----0-----------------0----|
A|-2----2-----------------2-------------2---2----|-2-------------2---2--------------0---2--------|
E|-3-----------------3----3----3------------3----|-3----3------------3---------3-----------------|

E|-----------3----3---3--------3---3-------------|----------3--------3----3---3---------------------|
B|-----------3----3---3--------3---3-------------|------3---3--------3----3---3---------------------|
G|------0----0----0---0---0------------0---------|------0---0--------0----0-------------------------|
D|-2----------------------2-----------------2----|-0------------0------------------------------0----|
A|-----------------------------------------------|-------------------------------------0---2--------|
E|-----------------------------------------------|--------------3-----------------3-----------------|

E|-----------3----3---3---3---3------------------|----------3--------3----3---3---------------------|
B|------3----3----3---3---3---3------------------|------3---3--------3----3---3---------------------|
G|------0----0----0---0---0---0--------0---------|------0---0--------0----0-------------------------|
D|-2------------------------------2---------2----|-0------------0------------------------------0----|
A|-----------------------------------------------|-------------------------------------0---2--------|
E|-----------------------------------------------|--------------3-----------------3-----------------|

E|------3---3---3----3---3---3---3------------------|-----------3---3---3----3---3---3---3----------------|
B|------3---3---3----3---3---3---3------------------|-----------3---3---3----3---3---3---3----------------|
G|------0---0---0----0---0---0---0------------------|-----------0---0---0----0---0------------------------|
D|-2---------------------------------2----0---------|------2------------2----2-----------------------0----|
A|---------------------------------------------2----|-0--------------------------------------0---2--------|
E|--------------------------------------------------|-----------------------------------------------------|

E|------3---3---3----3---3---3---3------------------|--------------3-------------3---------------------------|
B|------3---3---3----3---3---3---3------------------|--------------3-------------3---------------------------|
G|------0---0---0----0---0---0---0------------------|--------------0-----------------------------------------|
D|-2---------------------------------2----0---------|------2---2---------------------2---0-------------------|
A|---------------------------------------------2----|-0-----------------0----0---------------0---2---0-------|
E|--------------------------------------------------|----------------------------------------------------3---|

E|-3-----3---3--------3-----3---3---3----|-0---------0----0---0---0----0----0---0---0----|
B|-3-----3---3--------3-----3---3---3----|-1---------1----1---1---1----1----1---1---1----|
G|-0-----0---0--------0-----0---0---0----|-0---------0----0---0---0----0----0---0---0----|
D|-0-----0---0--------0-----0---0---0----|-2---------2----2---2---2----2----2---2---2----|
A|-2-----2---2--------2-----2---2---2----|-3---------3----3---3---3----3----3---3---3----|
E|-3-----3---3---3----3-----3---3---3----|-3----3----3----3---3---3----3----3---3---3----|

E|-2----2----2---2---2---2---2----2----2---2---2----|-0-----0---0---0---0---0----0----0---0-----------|
B|-3----3----3---3---3---3---3----3----3---3---3----|-1-----1---1---1---1---1----1----1---1---X-------|
G|-2----2----2---2---2---2---2----2----2---2---2----|-2-----2---2---2---2---2----2----2---2---X---0---|
D|-0----0----0---0---0---0---0----0----0---0---0----|-2-----2---2---2---2---2----2----2---2---X---0---|
A|--------------------------------------------------|-0-----0---0---0---0---0----0----0---0---X-------|
E|-2----2----2---2---2---2---2----2----2---2---2----|---------------0---0---0----0--------------------|

E|-3----3----3---3---3---3---3----3----3---3---3----|-2-----X---3---3---3---3---3-----3---3---3----|
B|-3----3----3---3---3---3---3----3----3---3---3----|-3-----X---3---3---3---3---3-----3---3---3----|
G|-0----0----0---0---0---0---0----0----0---0---0----|-2-----X---2---2---2---2---2-----2---2---2----|
D|-0----0----0---0---0---0---0----0----0---0---0----|-0-----X---0---0---0---0---0-----0---0---0----|
A|-2----2----2---2---2---2---2----2----2---2---2----|----------------------------------------------|
E|-3----3----3---3---3---3---3----3----3---3---3----|-------------------2---2---2-----2---2---2----|

E|-0-----0---0---0---0----0----0---0---0---0---0----|----------------------------------------------|
B|-1-----1---1---1---1----1----1---1---1---1---1----|-1----1---1---1---1---1---1---1----1-----1----|
G|-0-----0---0---0---0----0----0---0---0---0---0----|-2----2---2---2---2---2---2---2----2-----2----|
D|-2-----2---2---2---2----2----2---2---2---2---2----|-2----2---2---2---2---2---2---2----2-----2----|
A|-3-----3---3---3---3----3----3---3---3---3---3----|-0----0---0---0---0---0---0---0----0-----0----|
E|-3-----3---3---3---3----3----3---3---3---3---3----|-0----0---0---0---0---0---0---0----0-----0----|

E|-3-----3---3---3---3---3-----3---3---3----|-0---------0----0---0---0----0----0---0---0----|
B|-3-----3---3---3---3---3-----3---3---3----|-1---------1----1---1---1----1----1---1---1----|
G|-0-----0---0---0---0---0-----0---0---0----|-0---------0----0---0---0----0----0---0---0----|
D|-0-----0---0---0---0---0-----0---0---0----|-2---------2----2---2---2----2----2---2---2----|
A|-2-----2---2---2---2---2-----2---2---2----|-3---------3----3---3---3----3----3---3---3----|
E|-3-----3---3---3---3---3-----3---3---3----|-3----3----3----3---3---3----3----3---3---3----|

E|-2----2----2---2---2---2---2----2----2---2---2----|-0-----0---0---0---0---0----0----0---0-----------|
B|-3----3----3---3---3---3---3----3----3---3---3----|-1-----1---1---1---1---1----1----1---1---X-------|
G|-2----2----2---2---2---2---2----2----2---2---2----|-2-----2---2---2---2---2----2----2---2---X---0---|
D|-0----0----0---0---0---0---0----0----0---0---0----|-2-----2---2---2---2---2----2----2---2---X---0---|
A|--------------------------------------------------|-0-----0---0---0---0---0----0----0---0---X-------|
E|-2----2----2---2---2---2---2----2----2---2---2----|---------------0---0---0----0--------------------|

E|-3----3----3---3---3---3---3----3----3---3---3----|-2-----X---3---3---3---3---3-----3---3---3----|
B|-3----3----3---3---3---3---3----3----3---3---3----|-3-----X---3---3---3---3---3-----3---3---3----|
G|-0----0----0---0---0---0---0----0----0---0---0----|-2-----X---2---2---2---2---2-----2---2---2----|
D|-0----0----0---0---0---0---0----0----0---0---0----|-0-----X---0---0---0---0---0-----0---0---0----|
A|-2----2----2---2---2---2---2----2----2---2---2----|----------------------------------------------|
E|-3----3----3---3---3---3---3----3----3---3---3----|-------------------2---2---2-----2---2---2----|

E|-0-----0---0---0---0----0----0---0---0---0---0----|-0-----0---0---0----0-----0---0---0----|
B|-1-----1---1---1---1----1----1---1---1---1---1----|-1-----1---1---1----1-----1---1---1----|
G|-0-----0---0---0---0----0----0---0---0---0---0----|-2-----2---2---2----2-----2---2---2----|
D|-2-----2---2---2---2----2----2---2---2---2---2----|-2-----2---2---2----2-----2---2---2----|
A|-3-----3---3---3---3----3----3---3---3---3---3----|-0-----0---0---0----0-----0---0---0----|
E|-3-----3---3---3---3----3----3---3---3---3---3----|---------------------------------------|

E|-3-------------3-----3----------------------|-----------3----3---3--------3---3-------------|
B|-3-------------3-----3----------------------|-----------3----3---3--------3---3-------------|
G|-0---------0---0-----0----------------------|------0----0----0---0---0------------0---------|
D|-0---------0---------------------------0----|-2----------------------2-----------------2----|
A|-2---------2-------------------0---2--------|-----------------------------------------------|
E|-3----3----3--------------3-----------------|-----------------------------------------------|

E|----------3--------3----3---3---------------------|-----------3----3---3---3---3------------------|
B|------3---3--------3----3---3---------------------|------3----3----3---3---3---3------------------|
G|------0---0--------0----0-------------------------|------0----0----0---0---0---0--------0---------|
D|-0------------0------------------------------0----|-2------------------------------2---------2----|
A|-------------------------------------0---2--------|-----------------------------------------------|
E|--------------3-----------------3-----------------|-----------------------------------------------|

E|----------3--------3----3---3---------------------|------3---3---3----3---3---3---3------------------|
B|------3---3--------3----3---3---------------------|------3---3---3----3---3---3---3------------------|
G|------0---0--------0----0-------------------------|------0---0---0----0---0---0---0------------------|
D|-0------------0------------------------------0----|-2---------------------------------2----0---------|
A|-------------------------------------0---2--------|---------------------------------------------2----|
E|--------------3-----------------3-----------------|--------------------------------------------------|

E|-----------3---3---3----3---3---3---3----------------|------3---3---3----3---3---3---3------------------|
B|-----------3---3---3----3---3---3---3----------------|------3---3---3----3---3---3---3------------------|
G|-----------0---0---0----0---0------------------------|------0---0---0----0---0---0---0------------------|
D|------2------------2----2-----------------------0----|-2---------------------------------2----0---------|
A|-0--------------------------------------0---2--------|---------------------------------------------2----|
E|-----------------------------------------------------|--------------------------------------------------|

E|--------------3---3---3---3---3----3---3-------------------|-3-----3---3---3---3---3----3----3---3---3---3---|
B|--------------3---3---3---3---3----3---3-------------------|-3-----3---3---3---3---3----3----3---3---3---3---|
G|--------------0---0---0---0---0----0---0-------------------|-0-----0---0---0---0---0----0----0---0---0---0---|
D|------2---2------------------------------------------------|-0-----0---0---0---0---0----0----0---0---0---0---|
A|-0-----------------------------------------0---2---0---2---|-2-----2---2---2---2---2----2----2---2---2---2---|
E|-----------------------------------------------------------|-3-----3---3---3---3---3----3----3---3---3---3---|

E|-0-----0-----0----0----0---0---0---0---|-2----2----2---2---2---2---2----2----2---2---2----|
B|-1-----1-----1----1----1---1---1---1---|-3----3----3---3---3---3---3----3----3---3---3----|
G|-0-----0-----0----0----0---0---0---0---|-2----2----2---2---2---2---2----2----2---2---2----|
D|-2-----2-----2----2----2---2---2---2---|-0----0----0---0---0---0---0----0----0---0---0----|
A|-3-----3-----3----3----3---3---3---3---|--------------------------------------------------|
E|-3-----3-----3----3----3---3---3---3---|-2----2----2---2---2---2---2----2----2---2---2----|

E|-0----0----0---0-----0---0-----0---0---0---0---|-3----3----3---3----3---3----3---3---3---3---3----|
B|-1----1----1---1-----1---1-----1---1---1---1---|-3----3----3---3----3---3----3---3---3---3---3----|
G|-2----2----2---2-----2---2-----2---2---2---2---|-0----0----0---0----0---0----0---0---0---0---0----|
D|-2----2----2---2-----2---2-----2---2---2---2---|-0----0----0---0----0---0----0---0---0---0---0----|
A|-0----0----0---0-----0---0-----0---0---0---0---|-2----2----2---2----2---2----2---2---2---2---2----|
E|-----------------------------------------------|-3----3----3---3----3---3----3---3---3---3---3----|

E|-2-----2---2--------2----2----2---2---2----|-0-----0---0-----0----0----0---0---0----|
B|-3-----3---3--------3----3----3---3---3----|-1-----1---1-----1----1----1---1---1----|
G|-2-----2---2--------2----2----2---2---2----|-0-----0---0-----0----0----0---0---0----|
D|-0-----0---0--------0----0----0---0---0----|-2-----2---2-----2----2----2---2---2----|
A|-------------------------------------------|-3-----3---3-----3----3----3---3---3----|
E|-2-----2---2---2----2----2----2---2---2----|-3-----3---3-----3----3----3---3---3----|

E|-0-----0---0-------0---0----0---0---0---0---0---0---|-3---------3-----3----------------------|
B|-1-----1---1-------1---1----1---1---1---1---1---1---|-3---------3-----3----------------------|
G|-2-----2---2-------2---2----2---2---2---2---2---2---|-0-----0---0-----0----------------------|
D|-2-----2---2-------2---2----2---2---2---2---2---2---|-0-----0---------------------------0----|
A|-0-----0---0-------0---0----0---0---0---0---0---0---|-2-----2-------------------0---2--------|
E|---------------0------------------------------------|-3-----3--------------3-----------------|

E|-----------3----3---3--------3---3-------------|----------3--------3----3---3---------------------|
B|-----------3----3---3--------3---3-------------|------3---3--------3----3---3---------------------|
G|------0----0----0---0---0------------0---------|------0---0--------0----0-------------------------|
D|-2----------------------2-----------------2----|-0------------0------------------------------0----|
A|-----------------------------------------------|-------------------------------------0---2--------|
E|-----------------------------------------------|--------------3-----------------3-----------------|

E|-----------3----3---3---3---3------------------|----------3--------3----3---3---------------------|
B|------3----3----3---3---3---3------------------|------3---3--------3----3---3---------------------|
G|------0----0----0---0---0---0--------0---------|------0---0--------0----0-------------------------|
D|-2------------------------------2---------2----|-0------------0------------------------------0----|
A|-----------------------------------------------|-------------------------------------0---2--------|
E|-----------------------------------------------|--------------3-----------------3-----------------|

E|------3---3---3----3---3---3---3------------------|-----------3---3---3----3---3---3---3----------------|
B|------3---3---3----3---3---3---3------------------|-----------3---3---3----3---3---3---3----------------|
G|------0---0---0----0---0---0---0------------------|-----------0---0---0----0---0------------------------|
D|-2---------------------------------2----0---------|------2------------2----2-----------------------0----|
A|---------------------------------------------2----|-0--------------------------------------0---2--------|
E|--------------------------------------------------|-----------------------------------------------------|

E|------3---3---3----3---3---3---3------------------|--------------3-------------3---------------------------|
B|------3---3---3----3---3---3---3------------------|--------------3-------------3-----------3-----------3---|
G|------0---0---0----0---0---0---0------------------|--------------0-------------------------0-------0---0---|
D|-2---------------------------------2----0---------|------2---2---------------------2---0-----------0-------|
A|---------------------------------------------2----|-0-----------------0----0---------------0---2---0-------|
E|--------------------------------------------------|--------------------------------------------------------|

E|-3-----3---3---3----3----3----3---3---3---3---|-3----3----3---3----3---3---3---------------------|
B|-3-----3---3---3----3----3----3---3---3---3---|-3----3----3---3----3---3---3---------------------|
G|-0-----0---0---0----0----0----0---0---0---0---|-0----0----0---0----0---0---0---------------------|
D|-0-----0---0---0----0----0----0---0---0---0---|-0----0----0---0----0---0---0----------------0----|
A|-2-----2---2---2----2----2----2---2---2---2---|-2----2----2---2----2---2---2--------0---2--------|
E|-3-----3---3---3----3----3----3---3---3---3---|-3----3----3---3----3---3---3---3-----------------|

E|-----------3----3---3--------3---3-------------|----------3--------3----3---3---------------------|
B|-----------3----3---3--------3---3-------------|------3---3--------3----3---3---------------------|
G|------0----0----0---0---0------------0---------|------0---0--------0----0-------------------------|
D|-2----------------------2-----------------2----|-0------------0------------------------------0----|
A|-----------------------------------------------|-------------------------------------0---2--------|
E|-----------------------------------------------|--------------3-----------------3-----------------|

E|-----------3----3---3---3---3------------------|----------3--------3----3---3---------------------|
B|------3----3----3---3---3---3------------------|------3---3--------3----3---3---------------------|
G|------0----0----0---0---0---0--------0---------|------0---0--------0----0-------------------------|
D|-2------------------------------2---------2----|-0------------0------------------------------0----|
A|-----------------------------------------------|-------------------------------------0---2--------|
E|-----------------------------------------------|--------------3-----------------3-----------------|

E|------3---3---3----3---3---3---3------------------|-----------3---3---3----3---3---3---3----------------|
B|------3---3---3----3---3---3---3------------------|-----------3---3---3----3---3---3---3----------------|
G|------0---0---0----0---0---0---0------------------|-----------0---0---0----0---0------------------------|
D|-2---------------------------------2----0---------|------2------------2----2-----------------------0----|
A|---------------------------------------------2----|-0--------------------------------------0---2--------|
E|--------------------------------------------------|-----------------------------------------------------|

E|------3---3---3----3---3---3---3------------------|--------------3-------------3---------------------------|
B|------3---3---3----3---3---3---3------------------|--------------3-------------3-----------3---3-------3---|
G|------0---0---0----0---0---0---0------------------|--------------0-------------------------0---0---0---0---|
D|-2---------------------------------2----0---------|------2---2---------------------2---0-----------0-------|
A|---------------------------------------------2----|-0-----------------0----0---------------0---2-----------|
E|--------------------------------------------------|--------------------------------------------------------|

E|-3---------3--------3-----3---3---3----|----------3--------3----3---3---------------------|
B|-3-----0---3--------3-----3---3---3----|------3---3--------3----3---3---------------------|
G|-0-----0---0--------0-----0---0---0----|------0---0--------0----0-------------------------|
D|-0-----0------------0-----0---0---0----|-0------------0------------------------------0----|
A|-2------------------2-----2---2---2----|-------------------------------------0---2--------|
E|-3-------------3----3-----3---3---3----|--------------3-----------------3-----------------|

E|-----------3----3---3---3---3------------------|----------3--------3----3---3---------------------|
B|------3----3----3---3---3---3------------------|------3---3--------3----3---3---------------------|
G|------0----0----0---0---0---0--------0---------|------0---0--------0----0-------------------------|
D|-2------------------------------2---------2----|-0------------0------------------------------0----|
A|-----------------------------------------------|-------------------------------------0---2--------|
E|-----------------------------------------------|--------------3-----------------3-----------------|

E|------3---3---3----3---3---3---3------------------|----------3--------3----3---3---------------------|
B|------3---3---3----3---3---3---3------------------|------3---3--------3----3---3---------------------|
G|------0---0---0----0---0---0---0------------------|------0---0--------0----0-------------------------|
D|-2---------------------------------2----0---------|-0------------0------------------------------0----|
A|---------------------------------------------2----|-------------------------------------0---2--------|
E|--------------------------------------------------|--------------3-----------------3-----------------|
Pink Floyd - Wish You Were Here (3)
Pink Floyd - Wish You Were Here (3).gp3