Pink Floyd - Wish You Were Here (6)

Pink Floyd



Title: Wish You Were Here
Album: Wish You Were Here
Artist: Pink Floyd
Author: Waters, Gilmour

Track 1: 12 String Guitar
E|----------------------|--------------3----3---3------------3-------------|----------3--------3----3---3---------------------|
B|----------------------|------3---3---3----3---3--------3---3-------------|------3---3--------3----3---3---------------------|
G|-%--------------------|------0---0---0----0---0---0----0-------0---------|------0---0---0----0----0---0---------------------|
D|-%---------------0----|-2-------------------------2-----------------2----|-0------------0----0----0--------------------0----|
A|---------0---2--------|--------------------------------------------------|-------------------------------------0---2--------|
E|----------------------|--------------------------------------------------|--------------3----3----3-------3-----------------|

E|-----------3----3---3---3---3------------------|----------3--------3----3---3---------------------|
B|------3----3----3---3---3---3------------------|------3---3--------3----3---3---------------------|
G|------0----0----0---0---0---0--------0---------|------0---0---0----0----0---0---------------------|
D|-2------------------------------2---------2----|-0------------0------------------------------0----|
A|-----------------------------------------------|-------------------------------------0---2--------|
E|-----------------------------------------------|--------------3-----------------3-----------------|

E|------3---3---3----3---3---3---3------------------|-----------3---3---3----3----3---3----------------|
B|------3---3---3----3---3---3---3------------------|-----------3---3---3----3----3---3----------------|
G|------0---0---0----0---0---0---0------------------|-----------0---0---0----0-------------------------|
D|-2---------------------------------2----0---------|------2------------2----2--------------------0----|
A|---------------------------------------------2----|-0-----------------0----0------------0---2--------|
E|--------------------------------------------------|--------------------------------------------------|

E|------3---3---3----3---3---3---3------------------|--------------3-------------3---------------------------|
B|------3---3---3----3---3---3---3------------------|--------------3-------------3-----------3-----------3---|
G|------0---0---0----0---0---0---0------------------|--------------0-------------------------0-------0---0---|
D|-2---------------------------------2----0---------|------2---2---------------------2---0---0-------0---0---|
A|---------------------------------------------2----|-0-----------------0----0---------------0---2-----------|
E|--------------------------------------------------|--------------------------------------------------------|

E|-3------------3---------3--------------3---3---|-3--------------3---3---3----------------------|
B|-3----3---3---3---------3--------------3---3---|-3--------------3---3---3----------------------|
G|-0----0---0---0---------0--------------0---0---|-0--------------0---0---0----------------------|
D|-0----0-------0---------0---------0----0---0---|-0---------0----0---0---0-----------------0----|
A|-2----2-----------------2--------------2---2---|-2--------------2---2-------------0---2--------|
E|-3-----------------3----3----3-------------3---|-3----3-------------3--------3-----------------|

E|--------------3----3---3------------3-------------|----------3--------3----3---3---------------------|
B|------3---3---3----3---3--------3---3-------------|------3---3--------3----3---3---------------------|
G|------0---0---0----0---0---0----0-------0---------|------0---0---0----0----0---0---------------------|
D|-2-------------------------2-----------------2----|-0------------0----0----0--------------------0----|
A|--------------------------------------------------|-------------------------------------0---2--------|
E|--------------------------------------------------|--------------3----3----3-------3-----------------|

E|-----------3----3---3---3---3------------------|----------3--------3----3---3---------------------|
B|------3----3----3---3---3---3------------------|------3---3--------3----3---3---------------------|
G|------0----0----0---0---0---0--------0---------|------0---0---0----0----0---0---------------------|
D|-2------------------------------2---------2----|-0------------0------------------------------0----|
A|-----------------------------------------------|-------------------------------------0---2--------|
E|-----------------------------------------------|--------------3-----------------3-----------------|

E|------3---3---3----3---3---3---3------------------|-----------3---3---3----3----3---3----------------|
B|------3---3---3----3---3---3---3------------------|-----------3---3---3----3----3---3----------------|
G|------0---0---0----0---0---0---0------------------|-----------0---0---0----0-------------------------|
D|-2---------------------------------2----0---------|------2------------2----2--------------------0----|
A|---------------------------------------------2----|-0-----------------0----0------------0---2--------|
E|--------------------------------------------------|--------------------------------------------------|

E|------3---3---3----3---3---3---3------------------|--------------3-------------3---------------------------|
B|------3---3---3----3---3---3---3------------------|--------------3-------------3-----------3-----------3---|
G|------0---0---0----0---0---0---0------------------|--------------0-------------------------0-------0---0---|
D|-2---------------------------------2----0---------|------2---2---------------------2---0---0-------0---0---|
A|---------------------------------------------2----|-0-----------------0----0---------------0---2-----------|
E|--------------------------------------------------|--------------------------------------------------------|

E|-3------------3---------3--------------3---3---|---------|---------|---------|---------|
B|-3----3---3---3---------3--------------3---3---|---------|---------|---------|---------|
G|-0----0---0---0---------0--------------0---0---|-%-------|-%-------|-%-------|-%-------|
D|-0----0-------0---------0---------0----0---0---|-%-------|-%-------|-%-------|-%-------|
A|-2----2-----------------2--------------2---2---|---------|---------|---------|---------|
E|-3-----------------3----3----3-------------3---|---------|---------|---------|---------|

E|---------|---------|---------|---------|---------|---------|---------|---------|---------|
B|---------|---------|---------|---------|---------|---------|---------|---------|---------|
G|-%-------|-%-------|-%-------|-%-------|-%-------|-%-------|-%-------|-%-------|-%-------|
D|-%-------|-%-------|-%-------|-%-------|-%-------|-%-------|-%-------|-%-------|-%-------|
A|---------|---------|---------|---------|---------|---------|---------|---------|---------|
E|---------|---------|---------|---------|---------|---------|---------|---------|---------|

E|---------|---------|---------|---------|---------|---------|---------|---------|---------|
B|---------|---------|---------|---------|---------|---------|---------|---------|---------|
G|-%-------|-%-------|-%-------|-%-------|-%-------|-%-------|-%-------|-%-------|-%-------|
D|-%-------|-%-------|-%-------|-%-------|-%-------|-%-------|-%-------|-%-------|-%-------|
A|---------|---------|---------|---------|---------|---------|---------|---------|---------|
E|---------|---------|---------|---------|---------|---------|---------|---------|---------|

E|---------|---------|---------|---------|---------|---------|---------|---------|---------|
B|---------|---------|---------|---------|---------|---------|---------|---------|---------|
G|-%-------|-%-------|-%-------|-%-------|-%-------|-%-------|-%-------|-%-------|-%-------|
D|-%-------|-%-------|-%-------|-%-------|-%-------|-%-------|-%-------|-%-------|-%-------|
A|---------|---------|---------|---------|---------|---------|---------|---------|---------|
E|---------|---------|---------|---------|---------|---------|---------|---------|---------|

E|---------|---------|---------|---------|---------|---------|---------|---------|---------|
B|---------|---------|---------|---------|---------|---------|---------|---------|---------|
G|-%-------|-%-------|-%-------|-%-------|-%-------|-%-------|-%-------|-%-------|-%-------|
D|-%-------|-%-------|-%-------|-%-------|-%-------|-%-------|-%-------|-%-------|-%-------|
A|---------|---------|---------|---------|---------|---------|---------|---------|---------|
E|---------|---------|---------|---------|---------|---------|---------|---------|---------|

E|---------|---------|---------|---------|---------|---------|---------|---------|---------|
B|---------|---------|---------|---------|---------|---------|---------|---------|---------|
G|-%-------|-%-------|-%-------|-%-------|-%-------|-%-------|-%-------|-%-------|-%-------|
D|-%-------|-%-------|-%-------|-%-------|-%-------|-%-------|-%-------|-%-------|-%-------|
A|---------|---------|---------|---------|---------|---------|---------|---------|---------|
E|---------|---------|---------|---------|---------|---------|---------|---------|---------|

E|---------|---------|---------|---------|---------|---------|
B|---------|---------|---------|---------|---------|---------|
G|-%-------|-%-------|-%-------|-%-------|-%-------|-%-------|
D|-%-------|-%-------|-%-------|-%-------|-%-------|-%-------|
A|---------|---------|---------|---------|---------|---------|
E|---------|---------|---------|---------|---------|---------|
Pink Floyd - Wish You Were Here (6)
Pink Floyd - Wish You Were Here (6).gp3