Pink Floyd - Wots... Uh The Deal

Pink Floyd



Title: Wots... Uh! The Deal?
Album: Obscured By Clouds
Artist: Pink Floyd
Author: Roger Waters & David Gilmour

Track 1: Lead Guitar (Gilmour)
E|--------------------|--------------------|--------------------|--------------------|
B|--------------------|--------------------|--------------------|--------------------|
G|--------------------|--------%-----------|--------%-----------|--------%-----------|
D|-5------7-----5-----|--------%-----------|--------%-----------|--------%-----------|
A|--------------------|-9------------9-----|-8------------8-----|-7------------7-----|
E|--------------------|--------------------|--------------------|--------------------|

E|--------------------|-------------------------|---------------|---------------|--------------------|
B|--------------------|-------------------------|---------------|---------------|--------------------|
G|--------%-----------|-------------------------|--------%------|---------------|--------------------|
D|--------%-----------|-------------------------|--------%------|---------------|-5------7-----5-----|
A|-6------------6-----|-5-----6-----7-----6-----|-5-------------|-5-------5-----|--------------------|
E|--------------------|-------------------------|---------------|---------------|--------------------|

E|--------------------|--------------------|--------------------|--------------------|
B|--------------------|--------------------|--------------------|--------------------|
G|--------%-----------|--------%-----------|--------%-----------|--------%-----------|
D|--------%-----------|--------%-----------|--------%-----------|--------%-----------|
A|-9------------9-----|-8------------8-----|-7------------7-----|-6------------6-----|
E|--------------------|--------------------|--------------------|--------------------|

E|-------------------------|---------------|---------------|--------------------|--------------------|
B|-------------------------|---------------|---------------|--------------------|--------------------|
G|-------------------------|--------%------|---------------|--------------------|--------%-----------|
D|-------------------------|--------%------|---------------|-5------7-----5-----|--------%-----------|
A|-5-----6-----7-----6-----|-5-------------|-5-------5-----|--------------------|-9------------9-----|
E|-------------------------|---------------|---------------|--------------------|--------------------|

E|--------------------|--------------------|--------------------|-------------------------|
B|--------------------|--------------------|--------------------|-------------------------|
G|--------%-----------|--------%-----------|--------%-----------|-------------------------|
D|--------%-----------|--------%-----------|--------%-----------|-------------------------|
A|-8------------8-----|-7------------7-----|-6------------6-----|-5-----6-----7-----6-----|
E|--------------------|--------------------|--------------------|-------------------------|

E|---------------|---------------|---------------|---------------|--------------------|
B|---------------|---------------|---------------|---------------|--------------------|
G|--------%------|---------------|---------%-----|---------%-----|--------------------|
D|--------%------|---------------|-5-------%-----|-3-------%-----|-2------------------|
A|-5-------------|-5-------5-----|---------------|---------------|--------3-----2-----|
E|---------------|---------------|---------------|---------------|--------------------|

E|--------------------|---------------|---------------|---------------|-------------------------|
B|--------------------|---------------|---------------|---------------|-------------------------|
G|--------------------|---------%-----|---------%-----|---------%-----|-------------------------|
D|-------7-----7------|-5-------%-----|-5-------%-----|---------%-----|-------------------------|
A|--------------------|---------------|---------------|-5-------------|-5-----5-----5-----5-----|
E|-5------------------|---------------|---------------|---------------|-------------------------|

E|--------------------|--------------------|--------------------|--------------------|
B|--------------------|--------------------|--------------------|--------------------|
G|--------------------|--------%-----------|--------%-----------|--------%-----------|
D|-5------7-----5-----|--------%-----------|--------%-----------|--------%-----------|
A|--------------------|-9------------9-----|-8------------8-----|-7------------7-----|
E|--------------------|--------------------|--------------------|--------------------|

E|--------------------|-------------------------|---------------|---------------|--------------------|
B|--------------------|-------------------------|---------------|---------------|--------------------|
G|--------%-----------|-------------------------|--------%------|---------------|--------------------|
D|--------%-----------|-------------------------|--------%------|---------------|-5------7-----5-----|
A|-6------------6-----|-5-----6-----7-----6-----|-5-------------|-5-------5-----|--------------------|
E|--------------------|-------------------------|---------------|---------------|--------------------|

E|--------------------|--------------------|--------------------|--------------------|
B|--------------------|--------------------|--------------------|--------------------|
G|--------%-----------|--------%-----------|--------%-----------|--------%-----------|
D|--------%-----------|--------%-----------|--------%-----------|--------%-----------|
A|-9------------9-----|-8------------8-----|-7------------7-----|-6------------6-----|
E|--------------------|--------------------|--------------------|--------------------|

E|-------------------------|---------------|---------------|---------------|---------------|
B|-------------------------|---------------|---------------|---------------|---------------|
G|-------------------------|--------%------|---------------|---------%-----|---------%-----|
D|-------------------------|--------%------|---------------|-5-------%-----|-3-------%-----|
A|-5-----6-----7-----6-----|-5-------------|-5-------5-----|---------------|---------------|
E|-------------------------|---------------|---------------|---------------|---------------|

E|--------------------|--------------------|---------------|---------------|---------------|
B|--------------------|--------------------|---------------|---------------|---------------|
G|--------------------|--------------------|---------%-----|---------%-----|---------%-----|
D|-2------------------|-------7-----7------|-5-------%-----|-5-------%-----|---------%-----|
A|--------3-----2-----|--------------------|---------------|---------------|-5-------------|
E|--------------------|-5------------------|---------------|---------------|---------------|

E|-------------------------|--------------------|--------------------|--------------------|
B|-------------------------|--------------------|--------------------|--------------------|
G|-------------------------|--------------------|--------%-----------|--------%-----------|
D|-------------------------|-5------7-----5-----|--------%-----------|--------%-----------|
A|-5-----5-----5-----5-----|--------------------|-9------------9-----|-8------------8-----|
E|-------------------------|--------------------|--------------------|--------------------|

E|--------------------|--------------------|-------------------------|---------------|
B|--------------------|--------------------|-------------------------|---------------|
G|--------%-----------|--------%-----------|-------------------------|--------%------|
D|--------%-----------|--------%-----------|-------------------------|--------%------|
A|-7------------7-----|-6------------6-----|-5-----6-----7-----6-----|-5-------------|
E|--------------------|--------------------|-------------------------|---------------|

E|---------------|--------------------|--------------------|--------------------|--------------------|
B|---------------|--------------------|--------------------|--------------------|--------------------|
G|---------------|--------------------|--------%-----------|--------%-----------|--------%-----------|
D|---------------|-5------7-----5-----|--------%-----------|--------%-----------|--------%-----------|
A|-5-------5-----|--------------------|-9------------9-----|-8------------8-----|-7------------7-----|
E|---------------|--------------------|--------------------|--------------------|--------------------|

E|--------------------|-------------------------|-------------------------|-5-----8-----10----14----|
B|--------------------|-------------------------|-3-----3-----3-----7-----|-------------------------|
G|--------%-----------|-------------------------|-------------------------|-------------------------|
D|--------%-----------|-------------------------|-------------------------|-------------------------|
A|-6------------6-----|-5-----6-----7-----6-----|-------------------------|-------------------------|
E|--------------------|-------------------------|-------------------------|-------------------------|

E|-------------------------------------|-----------15----------------------------|-12-----15---------------|
B|-12----12--------13---12-------------|-12---15-------------13---12-------------|-------------13----12----|
G|------------%--------------14---12---|----------------%-------------------12---|-------------------------|
D|------------%------------------------|----------------%--------------12--------|-------------------------|
A|-------------------------------------|-----------------------------------------|-------------------------|
E|-------------------------------------|-----------------------------------------|-------------------------|

E|---------------------------------|---------------------------7----8----|-7-----------------7---5---7----|
B|---------------------------------|-----------------8----10-------------|-------8------------------------|
G|-14----------12---14---12---14---|-12----12---7------------------------|------------9-------------------|
D|--------12-----------------------|-------------------------------------|--------------------------------|
A|---------------------------------|-------------------------------------|--------------------------------|
E|---------------------------------|-------------------------------------|--------------------------------|

E|-5---------------------5----7----|-5-----5-----------------------------------|--------------------|
B|-------7----------7--------------|------------X----5-------------------------|--------------------|
G|------------7--------------------|------------X---------7----7---5-----------|-4------------------|
D|---------------------------------|-----------------------------------9---7---|-5------7-----5-----|
A|---------------------------------|-------------------------------------------|--------------------|
E|---------------------------------|-------------------------------------------|--------------------|

E|--------------------|--------------------|--------------------|--------------------|
B|--------------------|--------------------|--------------------|--------------------|
G|--------%-----------|--------%-----------|--------%-----------|--------%-----------|
D|--------%-----------|--------%-----------|--------%-----------|--------%-----------|
A|-9------------9-----|-8------------8-----|-7------------7-----|-6------------6-----|
E|--------------------|--------------------|--------------------|--------------------|

E|-------------------------|---------------|---------------|--------------------|--------------------|
B|-------------------------|---------------|---------------|--------------------|--------------------|
G|-------------------------|--------%------|---------------|--------------------|--------%-----------|
D|-------------------------|--------%------|---------------|-5------7-----5-----|--------%-----------|
A|-5-----6-----7-----6-----|-5-------------|-5-------5-----|--------------------|-9------------9-----|
E|-------------------------|---------------|---------------|--------------------|--------------------|

E|--------------------|--------------------|--------------------|-------------------------|
B|--------------------|--------------------|--------------------|-------------------------|
G|--------%-----------|--------%-----------|--------%-----------|-------------------------|
D|--------%-----------|--------%-----------|--------%-----------|-------------------------|
A|-8------------8-----|-7------------7-----|-6------------6-----|-5-----6-----7-----6-----|
E|--------------------|--------------------|--------------------|-------------------------|

E|---------------|---------------|---------------|---------------|--------------------|
B|---------------|---------------|---------------|---------------|--------------------|
G|--------%------|---------------|---------%-----|---------%-----|--------------------|
D|--------%------|---------------|-5-------%-----|-3-------%-----|-2------------------|
A|-5-------------|-5-------5-----|---------------|---------------|--------3-----2-----|
E|---------------|---------------|---------------|---------------|--------------------|

E|--------------------|---------------|---------------|---------------|-------------------------|
B|--------------------|---------------|---------------|---------------|-------------------------|
G|--------------------|---------%-----|---------%-----|---------%-----|-------------------------|
D|-------7-----7------|-5-------%-----|-5-------%-----|---------%-----|-------------------------|
A|--------------------|---------------|---------------|-5-------------|-5-----5-----5-----5-----|
E|-5------------------|---------------|---------------|---------------|-------------------------|

E|--------------------|--------------------|--------------------|--------------------|
B|--------------------|--------------------|--------------------|--------------------|
G|--------------------|--------%-----------|--------%-----------|--------%-----------|
D|-5------7-----5-----|--------%-----------|--------%-----------|--------%-----------|
A|--------------------|-9------------9-----|-8------------8-----|-7------------7-----|
E|--------------------|--------------------|--------------------|--------------------|
Pink Floyd - Wots... Uh The Deal
Pink Floyd - Wots... Uh The Deal.gp4