Pink Floyd - Yet another movie solo 1

Pink Floyd



Title: Yet another movie solo 1
Album: 
Artist: Pink Floyd
Author: Saldex

Track 1: Gilmour
E|-12-----10----------|--------------------|-------------------|-----------------------------|
B|--------------10----|-10-----10---13-----|-13------13---13---|-13----13----13----11---13---|
G|--------------------|--------------------|-------------------|-----------------------------|
D|--------------------|--------------------|-------------------|-----------------------------|
A|--------------------|--------------------|-------------------|-----------------------------|
E|--------------------|--------------------|-------------------|-----------------------------|

E|-------------------|---------------|---------------------------|------------------------|
B|-13------11---10---|-11------------|---------------------------|------------------------|
G|-------------------|---------9-----|-9----12--10--9------14----|-14----14--12----%------|
D|-------------------|---------------|---------------------------|-----------------%------|
A|-------------------|---------------|---------------------------|------------------------|
E|-------------------|---------------|---------------------------|------------------------|

E|---------|
B|---------|
G|-%-------|
D|-%-------|
A|---------|
E|---------|
Pink Floyd - Yet another movie solo 1
Pink Floyd - Yet another movie solo 1.gp3