Pink Floyd - Yet another movie solo 2

Pink Floyd



Title: yet another movie solo 2
Album: 
Artist: Pink floyd
Author: saldex

Track 1: Gilmour
E|---------|---------------|-------------------------------------10--------|-----------------------------------------------------|
B|---------|-13-----13-----|-13--------12--10--12---12-------10------15----|-15---13--10---------------------6---5---------------|
G|-%-------|-14-----14-----|-14---%----12--10--12---12---14----------------|--------------14--12--10----%------------5-----------|
D|-%-------|---------------|------%----------------------------------------|----------------------------%----------------5---3---|
A|---------|---------------|-----------------------------------------------|-----------------------------------------------------|
E|---------|---------------|-----------------------------------------------|-----------------------------------------------------|

E|-------------------------------------------------|----------------------------------------------|
B|-------------------------------------------------|----------------------------------------------|
G|-------------------------------------------------|-%------------%-------%-----------------------|
D|-5---3-------3---3-------------------------------|-%------------%-------%-----------------------|
A|---------5-----------5---3-----------------------|----------3-------3-------3---3-----5---12----|
E|-----------------------------5---3---2-----2-----|------5---------------------------------------|

E|-----------------------------------------------|--------------------------|-12---------------13---------------15------------17------------|
B|-----------------------------------------------|---------0------------X---|--------------X----------------X------------0-------------0----|
G|-%----X---X------------------------------------|------------------X-------|----------X----------------X------------X-------------X--------|
D|-%----X---X-------------------5---5------------|--------------X-----------|------X----------------X---------------------------------------|
A|--------------3----5----5--------------3---5---|-5------------------------|---------------------------------------------------------------|
E|-----------------------------------------------|--------------------------|---------------------------------------------------------------|

E|-22-----22---20--17--20----|-20----20--20--19--17--20---20----19--17--|-20---20---20--19-17-15--17------------------|
B|---------------------------|------------------------------------------|-----------------------------22----22---20---|
G|---------------------------|------------------------------------------|---------------------------------------------|
D|---------------------------|------------------------------------------|---------------------------------------------|
A|---------------------------|------------------------------------------|---------------------------------------------|
E|---------------------------|------------------------------------------|---------------------------------------------|

E|------------------------|---------------------------------|---------------------------------------------|
B|-X----X----------15-----|---------------------------------|-----------------------------------22---22---|
G|-X----X----14----15-----|-14---14----12----%----14---15---|-15--14--12------------------14--------------|
D|------------------------|------------------%--------------|------------14-12--12----12------------------|
A|------------------------|---------------------------------|---------------------------------------------|
E|------------------------|---------------------------------|---------------------------------------------|

E|--------20---17--20----------20----------20--|------------------------------------------------------------|
B|-22------------------20--22------20--22------|-20------18--20--18--18--17---10--13--10--13----------------|
G|---------------------------------------------|-----19----------------------------------------10-----------|
D|---------------------------------------------|---------------------------------------------------12--10---|
A|---------------------------------------------|------------------------------------------------------------|
E|---------------------------------------------|------------------------------------------------------------|

E|---------|
B|---------|
G|-%-------|
D|-%-------|
A|---------|
E|---------|
Pink Floyd - Yet another movie solo 2
Pink Floyd - Yet another movie solo 2.gp3