Pink Floyd - Young Lust

Pink Floyd - Young Lust

Pink Floyd



Title: Young Lust
Album: The Wall 
Artist: Pink Floyd 
Author: Roger Waters

Track 1: Distortion Guitar
E|-------------------------------|------------------------|-----------------------------------------|
B|-------------------3------3----|-3------3---------------|-----------------------------------------|
G|-----------2---4---------------|-------------2----2-----|-----------------------------------------|
D|-------------------------------|-------------2----2-----|-----------------------------------------|
A|-------------------------------|-------------0----0-----|-5----5----7----5----5----5----7----5----|
E|-0----0------------------------|------------------------|-3----3----3----3----3----3----3----3----|

E|-----------------------------------------|-------------------------------|---------|
B|-----------------------------------------|-------------------3------3----|-3-------|
G|-----------------------------------------|-----------2---4---------------|---------|
D|-----------------------------------------|-------------------------------|---------|
A|-5----5----7----5----5----5----7----5----|-------------------------------|---------|
E|-3----3----3----3----3----3----3----3----|-0----0------------------------|---------|

E|-5-------|-5-------|-3-------|-3------3-----3---4-----4---|-5-------|-5-------|---------|
B|-5-------|-5-------|-3-------|-3------3-----3---4-----4---|-5-------|-5-------|---------|
G|-5-------|-5-------|-4-------|-4------4-----4---5-----5---|-5-------|-5-------|---------|
D|-7-------|-7-------|-5-------|-5------5-----5---6-----6---|-7-------|-7-------|---------|
A|-7-------|-7-------|-5-------|-5------5-----5---6-----6---|-7-------|-7-------|-2-------|
E|-5-------|-5-------|-3-------|-3------3-----3---4-----4---|-5-------|-5-------|-0-------|

E|---------|---------|
B|---------|---------|
G|---------|-%-------|
D|---------|-%-------|
A|-2-------|---------|
E|-0-------|---------|
Pink Floyd - Young Lust
Pink Floyd - Young Lust.gp3