Pink Floyd - Young Lust (2)

Pink Floyd



Title: Yound lust
Album: The Wall
Artist: Pink Floyd
Author: 

Track 1: Guitar 1
E|-------------------------------|---------------------------|-------------------------------|
B|-------------------3----3------|-3------3------------------|-------------------3----3------|
G|-----------2---4---------------|------------X---2----2-----|-----------2---4---------------|
D|-------------------------------|------------X---2----2-----|-2----2------------------------|
A|-------------------------------|------------X---0----0-----|-2----2------------------------|
E|-0----0------------------------|---------------------------|-0----0------------------------|

E|------------------------------|-------------------------------|------------------------------|
B|-3------3---------------------|-------------------3----3------|-3------3---------------------|
G|------------0---2---2---2-----|-----------2---4---------------|------------0---2---2---2-----|
D|------------------------------|-2----2------------------------|------------------------------|
A|------------------------------|-2----2------------------------|------------------------------|
E|------------------------------|-0----0------------------------|------------------------------|

E|-------------------------------|-------------------|--------------------------------------------------------|
B|-------------------3----3------|-3-------0---------|--------------------------------------------------------|
G|-----------2---4---------------|-------------------|--------------------------------------------------------|
D|-2----2------------------------|-------------------|--------------------------------------------------------|
A|-2----2------------------------|--------------3----|-5--------5---7--------7---5---5---5---5---7--------7---|
E|-0----0------------------------|--------------1----|-3----3---3---3----3---3---3---3---3---3---3----3-------|

E|--------------------------------------------------------|-------------------------------|
B|--------------------------------------------------------|-------------------3----3------|
G|--------------------------------------------%-----------|-----------2---4---------------|
D|--------------------------------------------%-----------|-------------------------------|
A|-5----X---X---7----X---X---5----X---X---7-------X---X---|-------------------------------|
E|-3----X---X---3----X---X---3----X---X---3-------X---X---|-0----0------------------------|

E|-------------------------------|----------------------|---------------|----------------------|
B|-3------3----------------------|----------------------|---------------|----------------------|
G|-------------X---X---X---------|-5-------5---5--------|-5-------5-----|-4-------4---4--------|
D|-------------X---X---X---------|-7-------7---7--------|-7-------7-----|-5-------5---5--------|
A|-------------X---X---X---------|-7-------7---7--------|-7-------7-----|-5-------5---5--------|
E|-------------------------10----|-5-------5---5----5---|-5-------5-----|-3-------3---3----3---|

E|----------------------------|-------------------|----------------------|---------|
B|----------------------------|-------------------|----------------------|---------|
G|-4------4---4-----5---5-----|-5-------5-----5---|-5-------5---5--------|---------|
D|-5------5---5-----6---6-----|-7-------7-----7---|-7-------7---7--------|---------|
A|-5------5---5-----6---6-----|-7-------7-----7---|-7-------7---7--------|---------|
E|-3------3---3-----4---4-----|-5-------5-----5---|-5---------------5----|-0-------|

E|---------------------------------|-------------------------------|--------X---2---------------|
B|-------------12--------15----15--|-------------------3----3------|-3------X---3-----X---2-----|
G|-------------12---12-------------|-----------2---4---------------|--------X---2-----X---2-----|
D|------------------12-------------|-------------------------------|--------X---0-----X---2-----|
A|--------12-----------------------|-------------------------------|----------------------0-----|
E|-0-------------------------------|-0----0------------------------|----------------------------|

E|-------------------------------|----------------0--------------------|-------------------------------|
B|-------------------3----3------|-3----------0-------3----------------|-------------------3----3------|
G|-----------2---4---------------|--------2---------------2---2---0----|-----------2---4---------------|
D|-------------------------------|-------------------------------------|-------------------------------|
A|-------------------------------|-------------------------------------|-------------------------------|
E|-0----0------------------------|-------------------------------------|-0----0------------------------|

E|---------------------------|-----------0----0----0----0------------------------|-----------------------------------------------------------|
B|-3-------------------------|---------------------------------------------------|-----------------------------------------------------------|
G|--------X---2--------2-----|-----------0----2----2----2----2---1---0-----------|-------------------------------------------0---------------|
D|--------X---2--------2-----|------2------------------------------------2---0---|-2---0---------------------------2-----2---0---------------|
A|--------X---0----0---0-----|---------------------------------------------------|---------2---0---1---0-------------------------2---3---4---|
E|---------------------------|-0-------------------------------------------------|-------------------------3---0-----------------0---1---2---|

E|--------------------------------------------------|-----------------------------------------------------|
B|--------------------------------------------------|-----------------------------------------------------|
G|--------------------------------------------------|-----------------------------------------------------|
D|--------------------------------------------------|-----------------------------------------------------|
A|-5---------7--------7---5--------5---7--------7---|-5--------5---7--------7---5--------5---7---5--------|
E|-3----3----3----3---3---3----3---3---3----3---3---|-3----3---3---3----3---3---3----3---3---3---3---5----|

E|-------------------------------|-------------------------------|-------------------------|
B|-------------------3----3------|-3------3----------------------|-------------------------|
G|-----------2---4---------------|-------------------------------|-5-------5---5---%-------|
D|------2------------------------|-------------X---X---X---------|-7-------7---7---%-------|
A|-2-----------------------------|-------------X---X---X---12----|-7-------7---7-----------|
E|-0-----------------------------|-------------X---X---X---12----|-5-------5-----------5---|

E|-------------------------------------|--------------------------------------------------|
B|-------------------------------------|--------------------------------------------------|
G|-5------5---5---%-------5----5-------|--------------------------------------------------|
D|-7------7---7---%-------7----7----7--|--------------------------------------------------|
A|-7------7---7-----------7----7----7--|-5----5----7--------7---5--------X---7----X---X---|
E|-5------5-----------5---5----5----5--|-3----3----3----3-------3----3---X---3----X---X---|

E|-----------------------------------------|--------------------------|-------------------|
B|-----------------------------------------|--------------------------|-------------------|
G|-----------------------------------------|--------------5---5---5---|-5-------5---5-----|
D|-------------------------5---------6-----|-7-------7----7---7---7---|-7-------7---7-----|
A|-5----5----7----5--------5---------6-----|-7-------7----7---7---7---|-7-------7---7-----|
E|-3----3----3----3----3---3-----3---3-----|-5-------5----5---5---5---|-5-------5---5-----|

E|---------|--------12------------------|---------|-------------------------------------------------|
B|---------|--------15--------15---15---|---------|-------------------------------------------------|
G|---------|-------------%--------------|-%-------|-%-----------------------------%-----------------|
D|-2-------|-2-----------%--------------|-%-------|-%------------------------5----%---7---7----7----|
A|-2-------|-2--------------------------|---------|-----X--X--2----5----7---------------------------|
E|-0-------|-0--------------------------|---------|-------------------------------------------------|

E|----------------------|---------------------------10--10--|-10---10----10---10---10---10--------|
B|----------------------|-----------------------X-----------|------10----10---10---10---10---10---|
G|----------------------|-------%-----%-----%---------------|-------------------------------------|
D|-5-------5----X---X---|-7-----%-----%-----%---------------|-------------------------------------|
A|--------------X---X---|-----------------------------------|-------------------------------------|
E|----------------------|-----------------------------------|-------------------------------------|

E|----------------X---------------12--12--|-12---12---12---12---12---12---12---12---|
B|----------------X---------------14--15--|-15---15---15---15---15---15---15---15---|
G|-12------------------%-----%------------|-----------------------------------------|
D|-----14----14--------%-----%------------|-----------------------------------------|
A|----------------------------------------|-----------------------------------------|
E|----------------------------------------|-----------------------------------------|

E|-12---12---------------15---15------------------|----------------------------------------------|
B|-15---15---15--15--12----------------------15---|-15----15--15--12-----------------------------|
G|---------------------------------%----%---------|-------------------14--14--14----14---12--14--|
D|---------------------------------%----%---------|----------------------------------------------|
A|------------------------------------------------|----------------------------------------------|
E|------------------------------------------------|----------------------------------------------|

E|--------------------------------|--------------------------------------------|----------------------------------------|
B|--------------------------------|--------------------------------------------|----------------------------------------|
G|-14----14---14--12--14-----14---|-%-------------------12--0--------12---14---|-12---14---14---14--14--12----14---14---|
D|--------------------------------|-%---------12---14-----------14-------------|----------------------------------------|
A|--------------------------------|------14------------------------------------|----------------------------------------|
E|--------------------------------|--------------------------------------------|----------------------------------------|

E|---------X---15--15--15--|-15---15---15---15---15---15---15---15---|------------------------------------|
B|---------X---15--15--15--|-15---15---15---15---15---15---15---15---|-15----15---15---15----17---X---X---|
G|-14----------------------|-----------------------------------------|------------------------------------|
D|-------------------------|-----------------------------------------|------------------------------------|
A|-------------------------|-----------------------------------------|------------------------------------|
E|-------------------------|-----------------------------------------|------------------------------------|

E|--------------------------------------------------------------|----------------------------------|
B|-15--12------12------------------14---------------------------|----------------------------------|
G|---------14------14--14--12--14--14--12-----------------------|----------------------------------|
D|-----------------------------14----------14--12---------------|----------------------------------|
A|-------------------------------------------------14-----------|---------------------7------------|
E|------------------------------------------------------3---4---|-5------5----X---X--------3---3---|

E|--------------------------------------------|-------------------------------------|
B|--------------------------------------------|-------------------------------------|
G|-----------------------------%--------------|-------------------------------------|
D|-----------------------------%--------------|-----------------X-------------------|
A|--------------------------------------------|-----------------X---5---0---X---X---|
E|-5----3---3---5----3----5---------3----3----|-0------0----X-----------------------|

E|-------------------------------------------------|-------------------------|-------------------|
B|-------------------------------------------------|-------------------------|-------------------|
G|-------------------------------------------------|-5-------5---5---X-------|-5-------5---5-----|
D|-------------------------------------------------|-7-------7---7---X-------|-7-------7---7-----|
A|-5---0---5---0---X---5---0---X---7-----7---7-----|-7-------7---7---X---7---|-7-------7---7-----|
E|-------------------------------------------------|-5-------5-----------5---|-5-------5---5-----|

E|--------------------------------------------------|-----------------------------------------------|
B|--------------------------------------------------|-----------------------------------------------|
G|--------------------------------------------------|-----------------------------------------------|
D|--------------------------------------------------|---------------------------------5-------6-----|
A|-5----5----7--------7---5--------5---7--------7---|-5--------5---7--------7---5-----5---6---6-----|
E|-3----3----3----3-------3----3-------3----3-------|-3----3-------3----3-------3-----3---4---4-----|

E|-------------------------|---------------|---------|---------------------------------12---|
B|-------------------------|---------------|---------|--------15---15---12--------12--------|
G|-------------5---X-------|-5-------5-----|---------|-----------------------14-------------|
D|-7-------7---7---X-------|-7-------7-----|---------|--------------------------------------|
A|-7-------7---7---X-------|-7-------7-----|---------|--------------------------------------|
E|-5-------5-------X---5---|-5-------5-----|-0-------|-0------------------------------------|

E|---------------------------|-------------------------------|-------------------------------|
B|---------------3----3------|-3------3-------2----2---2-----|-------------------3----3------|
G|-------2---4---------------|----------------2----2---2-----|-----------2---4---------------|
D|---------------------------|------------0---2----2---2-----|-------------------------------|
A|---------------------------|----------------0----0---0-----|-------------------------------|
E|-0-------------------------|-------------------------------|-0----0------------------------|

E|--------X---2---------------|-------------------------------|---------------------------|
B|-3------X---3-----X---2-----|-------------------3----3------|-3-------------------------|
G|--------X---2-----X---2-----|-----------2---4---------------|--------X---X---2----2-----|
D|--------X---0-----X---2-----|-------------------------------|--------X---X--------------|
A|------------------X---0-----|-------------------------------|---------------------------|
E|----------------------------|-0----0------------------------|---------------------------|

E|-------------------------------|--------10---10---10---10---|-------------------------------|
B|-------------------3----3------|-3------10---10---10---10---|-------------------3----3------|
G|-----------2---4---------------|----------------------------|-----------2---4---------------|
D|-------------------------------|----------------------------|-------------------------------|
A|-------------------------------|----------------------------|-------------------------------|
E|-0----0------------------------|----------------------------|-0----0------------------------|

E|---------------------------------------------------------|-------------------------------|
B|-X-------------------------------------------------------|-------------------3----3------|
G|------0---2----2----0------------------------------------|-----------2---4---------------|
D|-------------------------2---0---------------------------|------2------------------------|
A|---------------------------------2---0---1---0-----------|-------------------------------|
E|-------------------------------------------------3---0---|-0-----------------------------|

E|--------X---0-----------0----------|-------------------------------|--------12--------------12-------------|
B|-3------X---3-----------5----5-----|-------------------3----3------|-3----------12--15--15-------15----15--|
G|----------------2---4---4----------|-----------2---4---------------|---------------------------------------|
D|-----------------------------------|-------------------------------|---------------------------------------|
A|-----------------------------------|-------------------------------|---------------------------------------|
E|-----------------------------------|-0----0------------------------|---------------------------------------|

E|-------------------------------|------------------------------------|
B|-------------------3----3------|-3----------------------------------|
G|-----------2---4---------------|-----------%--------%--------%------|
D|-------------------------------|------2----%---2----%---2----%------|
A|-------------------------------|------2--------2--------2-----------|
E|-0----0------------------------|------0--------0--------0-----------|
Pink Floyd - Young Lust (2)
Pink Floyd - Young Lust (2).gp3