scales of all kind

scales of all kind

Lessons



Title: Scales
Album: 
Artist: 
Author: Lord AnonymouS

Track 1: Guitar
E|---------------------------------------------------------0---2---|-4-------------|
B|-------------------------------------------------2---4-----------|---------------|
G|-------------------------------------1---2---4-------------------|--------%------|
D|-------------------------1---2---4-------------------------------|--------%------|
A|-------------0---2---4-------------------------------------------|---------------|
E|-0---2---4-------------------------------------------------------|---------------|

E|-----------------------------------------------------0---1---3---|-5-------------|
B|---------------------------------------------1---3---------------|---------------|
G|---------------------------------0---2---3-----------------------|--------%------|
D|---------------------0---2---3-----------------------------------|--------%------|
A|---------0---1---3-----------------------------------------------|---------------|
E|-1---3-----------------------------------------------------------|---------------|

E|-----------------------------------------------------4---5----|-5-------------|----------------------------------------|
B|---------------------------------------------5---7------------|---------------|-------------------------6---7---9------|
G|---------------------------------4---6---7--------------------|--------%------|-----------------6---7------------------|
D|---------------------4---6---7--------------------------------|--------%------|-----6---7---9--------------------------|
A|---------4---5---7--------------------------------------------|---------------|-9--------------------------------------|
E|-5---7--------------------------------------------------------|---------------|----------------------------------------|

E|--------|--------------------------------------------------------------|---------------|
B|--------|---------------------------------------------0---2---4---5----|-5-------------|
G|-%------|---------------------------------0---2---3--------------------|--------%------|
D|-%------|-------------------------1---2--------------------------------|--------%------|
A|--------|-------------0---2---4----------------------------------------|---------------|
E|--------|-0---2---4----------------------------------------------------|---------------|

E|-------------------------------------------------0---2---3---5---|-5-------------|
B|-----------------------------------------1---3-------------------|---------------|
G|-----------------------------0---2---4---------------------------|--------%------|
D|-----------------0---2---4---------------------------------------|--------%------|
A|-----0---2---3---------------------------------------------------|---------------|
E|-3---------------------------------------------------------------|---------------|

E|-------------------------------------------------1---3---4----|-4-------------|-------------------------------------2---3---5---7---9---10---|
B|-------------------------------------1---2---4----------------|---------------|-------------------------2---3---5----------------------------|
G|-------------------------0---1---3----------------------------|--------%------|-----------------2---4----------------------------------------|
D|-----------------1---3----------------------------------------|--------%------|-----2---4---5------------------------------------------------|
A|-----1---3---4------------------------------------------------|---------------|-5------------------------------------------------------------|
E|-4------------------------------------------------------------|---------------|--------------------------------------------------------------|

E|-10------------|-------------------------------------------------5---7---8----|-8-------------|
B|---------------|-------------------------------------5---6---8----------------|---------------|
G|--------%------|-------------------------4---5---7----------------------------|--------%------|
D|--------%------|-----------------5---7----------------------------------------|--------%------|
A|---------------|-----5---7---8------------------------------------------------|---------------|
E|---------------|-8------------------------------------------------------------|---------------|

E|---------------------------------------------8---10--12--13---|-13------------|-----------------------------------------------------5---6----|
B|---------------------------------8---10--11-------------------|---------------|---------------------------------------------6---7------------|
G|---------------------7---9---10-------------------------------|--------%------|---------------------------------5---6---8--------------------|
D|---------7---8---10-------------------------------------------|--------%------|-------------------------7---8--------------------------------|
A|-8---10-------------------------------------------------------|---------------|-------------6---8---9----------------------------------------|
E|--------------------------------------------------------------|---------------|-6---8---9----------------------------------------------------|

E|-6-------------|---------------------------------------------5---6---9---10---|-10------------|
B|---------------|---------------------------------5---6---8--------------------|---------------|
G|--------%------|-------------------------6---7--------------------------------|--------%------|
D|--------%------|-------------5---7---8----------------------------------------|--------%------|
A|---------------|-5---7---8----------------------------------------------------|---------------|
E|---------------|--------------------------------------------------------------|---------------|

E|-----------------------------------------------------------------|---------8---9---12--13-----------|
B|-----------------------------------------------------5---6---8---|-9---11---------------------------|
G|---------------------------------------------5---6---------------|----------------------------%-----|
D|-------------------------2---3---5---6---8-----------------------|----------------------------%-----|
A|-------------1---3---4-------------------------------------------|----------------------------------|
E|-1---3---4-------------------------------------------------------|----------------------------------|

E|-----------------------------------------------------------------|-8---9---11--13--15--16-----------|
B|-----------------------------------------------------8---9---11--|----------------------------------|
G|---------------------------------------------8---10--------------|----------------------------%-----|
D|---------------------------------8---10--11----------------------|----------------------------%-----|
A|---------3---4---6---8---10--11----------------------------------|----------------------------------|
E|-4---6-----------------------------------------------------------|----------------------------------|

E|-----------------------------------------------------------------|---------7---9---11--12-----------|
B|-------------------------------------------------------------7---|-9---10---------------------------|
G|---------------------------------------------4---6---8---9-------|----------------------------%-----|
D|---------------------------------4---6---7-----------------------|----------------------------%-----|
A|-----------------2---4---6---7-----------------------------------|----------------------------------|
E|-0---2---4---5---------------------------------------------------|----------------------------------|

E|-----------------------------------------------------------------|-------------------------------------1---2---3---4---5---6---7---|
B|-----------------------------------------------------------------|---------------------2---3---4---5-------------------------------|
G|-----------------------------------------------------------------|-----2---3---4---5-----------------------------------------------|
D|-----------------------------------------------------3---4---5---|-6---------------------------------------------------------------|
A|-------------------------------------4---5---6---7---------------|-----------------------------------------------------------------|
E|-0---1---2---3---4---5---6---7---8-------------------------------|-----------------------------------------------------------------|

E|-8---10--11--12--13-----------|---------------------------------------------9---12--9-----------|
B|------------------------------|-------------------------------------8---11--------------11------|
G|------------------------%-----|-----------------------------6---9---------------------------12--|
D|------------------------%-----|---------------------5---8---------------------------------------|
A|------------------------------|-------------4---7-----------------------------------------------|
E|------------------------------|-0---3---6-------------------------------------------------------|

E|----------------------------------------|--------|-------------------------0---4---8---12--8-----------------------|
B|----------------------------------------|--------|---------------------1-----------------------9-------------------|
G|-9--------------------------------------|-%------|-----------------1-------------------------------9---------------|
D|-----11--8------------------------------|-%------|-------------2---------------------------------------10----------|
A|-------------10--7----------------------|--------|---------3-----------------------------------------------11--7---|
E|---------------------9---6---3---0------|--------|-0---4-----------------------------------------------------------|

E|-----------------------|---------------------6---12----------------------------|---------------|
B|-----------------------|-----------------5-----------11------------------------|---------------|
G|----------------%------|-------------3-------------------9---------------------|-------%-------|
D|----------------%------|---------2---------------------------8-----------------|-------%-------|
A|-----------------------|-----1-----------------------------------7-------------|---------------|
E|-8---4---0-------------|-0-------------------------------------------6---0-----|-0-------------|

E|-----------------------------------------------------7---8----|-8-------------|---------------------------------------------------------8----|
B|---------------------------------------------8---10-----------|---------------|---------------------------------------------8---10--11-------|
G|---------------------------------7---9---10-------------------|--------%------|---------------------------------7---8---10-------------------|
D|---------------------7---9---10-------------------------------|--------%------|---------------------7---8---10-------------------------------|
A|---------7---8---10-------------------------------------------|---------------|-------------8---10-------------------------------------------|
E|-8---10-------------------------------------------------------|---------------|-8---10--11---------------------------------------------------|

E|-8-------------|---------------------------------------------------------8----|-8-------------|
B|---------------|---------------------------------------------8---9---11-------|---------------|
G|--------%------|-------------------------------------8---10-------------------|--------%------|
D|--------%------|-------------------------8---10--11---------------------------|--------%------|
A|---------------|-------------8---10--11---------------------------------------|---------------|
E|---------------|-8---9---11---------------------------------------------------|---------------|

E|-----------------------------------------------------7---8----|-8-------------|---------------------------------------------------------8----|
B|-----------------------------------------7---8---10-----------|---------------|---------------------------------------------8---10--11-------|
G|---------------------------------7---9------------------------|--------%------|---------------------------------7---9---10-------------------|
D|---------------------7---9---10-------------------------------|--------%------|---------------------7---8---10-------------------------------|
A|---------7---9---10-------------------------------------------|---------------|---------7---8---10-------------------------------------------|
E|-8---10-------------------------------------------------------|---------------|-8---10-------------------------------------------------------|

E|-8-------------|---------------------------------------------------------8----|-8-------------|
B|---------------|---------------------------------------------8---9---11-------|---------------|
G|--------%------|---------------------------------7---8---10-------------------|--------%------|
D|--------%------|-------------------------8---10-------------------------------|--------%------|
A|---------------|-------------8---10--11---------------------------------------|---------------|
E|---------------|-8---10--11---------------------------------------------------|---------------|

E|---------------------------------------------------------8----|-8-------------|-----------------------------------------8---10---------|
B|-------------------------------------------------9---11-------|---------------|---------------------------------8---10-----------------|
G|-------------------------------------8---10--11---------------|--------%------|-------------------------7---9---------------------%----|
D|-------------------------8---10--11---------------------------|--------%------|-----------------7---10----------------------------%----|
A|-------------8---9---11---------------------------------------|---------------|---------7---10-----------------------------------------|
E|-8---9---11---------------------------------------------------|---------------|-8---10-------------------------------------------------|

E|-----------------------------------------8---10---------|-----------------------------------------8---11---------|
B|---------------------------------8---11-----------------|---------------------------------9---11-----------------|
G|-------------------------7---10--------------------%----|-------------------------8---10--------------------%----|
D|-----------------8---10----------------------------%----|-----------------8---10----------------------------%----|
A|---------8---10-----------------------------------------|---------8---11-----------------------------------------|
E|-8---10-------------------------------------------------|-8---11-------------------------------------------------|

E|-----------------------------------------8---10---------|-----------------------------------------8---11---------|
B|---------------------------------8---10-----------------|---------------------------------8---11-----------------|
G|-------------------------7---10--------------------%----|-------------------------8---10--------------------%----|
D|-----------------7---10----------------------------%----|-----------------8---10----------------------------%----|
A|---------8---10-----------------------------------------|---------8---10-----------------------------------------|
E|-8---10-------------------------------------------------|-8---11-------------------------------------------------|

E|--------|---------------------------------------------1---4-----------|---------------------------------------------4---6-----------|
B|--------|-------------------------------------1---4-------------------|-------------------------------------4---6-------------------|
G|-%------|-----------------------------1---3---------------------%-----|-------------------------3---4---5---------------------%-----|
D|-%------|---------------------1---3-----------------------------%-----|-----------------3---6---------------------------------%-----|
A|--------|---------1---2---3-------------------------------------------|---------3---6-----------------------------------------------|
E|--------|-1---4-------------------------------------------------------|-4---6-------------------------------------------------------|

E|-----------------------------------------6---7---8-----------|---------------------------------------------7---10----------|
B|---------------------------------6---9-----------------------|-------------------------------------8---10------------------|
G|-------------------------5---8-------------------------%-----|-----------------------------7---9---------------------%-----|
D|-----------------6---8---------------------------------%-----|-----------------7---8---9-----------------------------%-----|
A|---------6---8-----------------------------------------------|---------7---10----------------------------------------------|
E|-6---8-------------------------------------------------------|-7---10------------------------------------------------------|

E|---------------------------------------------11--13----------|-1---4---6---7---8---11--13--16---------------|
B|---------------------------------11--12--13------------------|----------------------------------------------|
G|-------------------------10--13------------------------%-----|-----------------------------------%------%---|
D|-----------------10--13--------------------------------%-----|-----------------------------------%------%---|
A|---------11--13----------------------------------------------|----------------------------------------------|
E|-11--13------------------------------------------------------|----------------------------------------------|

E|---------------------------------------------------------6---7---8---11--13--16--|
B|-------------------------------------------------6---9---------------------------|
G|---------------------------------3---4---5---8-----------------------------------|
D|---------------------1---3---6---------------------------------------------------|
A|---------1---2---3---------------------------------------------------------------|
E|-1---4---------------------------------------------------------------------------|

E|-16-----13------|---------|
B|----------------|---------|
G|----------------|-%-------|
D|----------------|-%-------|
A|----------------|---------|
E|----------------|---------|
scales of all kind
scales_of_all_kind.gp3